Sound will begin in 5 seconds

Every Time I Die - It Remembers

Chords
01234567891011121314151617181920212223
E
B
G
D
A
E
B
0 1 2 3 4 5 6 7 8 9 10 11 12 13 14 15 16 17 18 19 20 21 22 23
Song Science #1: How Pros Use 6 Chords to Write Hit Songs
(/) Slide Up  (\) Slide Down  (h) Hammer On  (p) Pull Off  (b) Bend (r) Release (v) Vibrato

Stave 1:

D|------------------------------------------------------------------|-
A|------------------------------------------------------------------|-
G|------------------------------------------------------------------|-
C|--------------------------------------------------------------5---|-
G|---1/8---------------8\1--------------1/8---------------8\1-----8-|-
C|-5-----0-5-3/8-5p3h5-----0-3-5-8-5--------0-5-3/8-5p3h5-----0-----|-

Stave 2:

D|------------------------------------------------------|-
A|------------------------------------------------------|-
G|------------------------------------------------------|-
C|-5----7-7-7-7-7-7-7-7-7-7-7-7-7-7-7-7-7-7-7-7-7-7-7-7-|-
G|-5----5-5-5-5-5-5-5-5-5-5-5-5-4-4-4-4-4-4-4-4-4-4-4-4-|-
C|-5----------------------------------------------------|-

Stave 3:

D|------------------------------------------------------------------------|-
A|------------------------------------------------------------------------|-
G|------------------------------------------------------------------------|-
C|-5---------------------------------5------------------------------------|-
G|-5---8v---------------8------------5------8v---------------8------------|-
C|-5-8----0-5-3-8-5r3h5---8v-0-3-5-8-5----8----0-5-3-8-5r3h5---8v-0-3-5-8-|-

Stave 4:

D|-------------------------------------------------------------------------|-
A|-------------------------------------------------------------------------|-
G|-------------------------------------------------------------------------|-
C|-8----8----8-5-8-5-8----8----8-5-0----8----8----8-5-8-5-8----0----3----5-|-
G|-8----8----8-5-8-5-8----8----8-5-0----8----8----8-5-8-5-8----0----3----5-|-
C|-8----8----8-5-8-5-8----8----8-5-0----8----8----8-5-8-5-8----0----3----5-|-

Stave 5:

D|--------------------------------------------------------------------|-
A|--------------------------------------------------------------------|-
G|--------------------------------------------------------------------|-
C|-5----5----5-3-5-3-5----5----5-3-0----5----5----5-3-5-3-5----0----3-|-
G|-5----5----5-3-5-3-5----5----5-3-0----5----5----5-3-5-3-5----0----3-|-
C|-5----5----5-3-5-3-5----5----5-3-0----5----5----5-3-5-3-5----0----3-|-

Stave 6:

D|----------------------------------------|-
A|----------------------------------------|-
G|----------------------------------------|-
C|--------10v---------------10------------|-
G|-5----8-----0-5-3-8-5\3/5----8v-0-3-5-8-|-
C|----------------------------------------|-

Stave 7:

D|-------------------------------------------------------------------------|-
A|-------------------------------------------------------------------------|-
G|-------------------------------------------------------------------------|-
C|-7-7-7-7-7-7-7-7-7-7-7-7-7-7-7-7-7-7-7-7-7-7-7-7-8-8-8-8-8-8-8-8-8-8-8-8-|-
G|-5-5-5-5-5-5-5-5-5-5-5-5-4-4-4-4-4-4-4-4-4-4-4-4-8-8-8-8-8-8-8-8-8-8-8-8-|-
C|-------------------------------------------------8-8-8-8-8-8-8-8-8-8-8-8-|-

Stave 8:

D|-------------------------|-
A|-------------------------|-
G|-------------------------|-
C|-------------------0-----|-
G|-------1-----------------|-
C|-0-3-5---5-3-0-5-8---5-8-|-

Stave 9:

D|-------------------------|-
A|-------------------------|-
G|-------------------------|-
C|-5-5-3-5-0-3-5-5-3-5-8-0-|-
G|-5-5-3-5-0-3-5-5-3-5-8-0-|-
C|-5-5-3-5-0-3-5-5-3-5-8-0-|-

Stave 10:

D|-------------------------|-
A|-------------------4-----|-
G|-------3---------3---0-3-|-
C|-0-3-5---5-3-0-5---------|-
G|-------------------------|-
C|-------------------------|-

Stave 11:

D|-----------------------------------|-
A|--------------------------11-------|-
G|---------10-------0-10-12----10-12-|-
C|-0-10-12----12-10------------------|-
G|-----------------------------------|-
C|-----------------------------------|-

Stave 12:

D|-----------------------------------|-
A|-----------------------------------|-
G|-----------------------------------|-
C|-5-8-10-0-5-3-8-5-3-5-10-8-0-3-5-8-|-
G|-5-8-8--0-5-3-8-5-3-5-8--8-0-3-5-8-|-
C|-5-8----0-5-3-8-5\3/5----8-0-3-5-8-|-

http://www.guitartabcreator.com
Guitar Tab Creator is intended to store guitar tab created through the tool. It currently does not support in-line text editing. Any text you place in here will be lost. If you need to comment on your tab, please use the "Tab Notes" section located below.