Sound will begin in 5 seconds

Every Time I Die- I Didn't Want To Join Your Stupid Cult Anyway

Chords
01234567891011121314151617181920212223
E
B
G
D
A
E
B
0 1 2 3 4 5 6 7 8 9 10 11 12 13 14 15 16 17 18 19 20 21 22 23
Song Science #1: How Pros Use 6 Chords to Write Hit Songs
(/) Slide Up  (\) Slide Down  (h) Hammer On  (p) Pull Off  (b) Bend (r) Release (v) Vibrato

Stave 1:

E|-------------------------------------------------|-
B|-------------------------------------------------|-
G|-------------------------------------------------|-
D|-7---------5-----7---------5-----7---------5-----|-
A|-5-0-0-0-0-3-5-6-5-0-0-0-0-3-5-6-5-0-0-0-0-3-5-6-|-
D|---0-0-0-0---5-6---0-0-0-0---5-6---0-0-0-0---5-6-|-

Stave 2:

E|-------------------------------------|-
B|-------------------------------------|-
G|-------------------------------------|-
D|-10-10-10-10-10-10-10-10-10-10-10-10-|-
A|-8--8--8--8--8--8--8--8--8--8--8--8--|-
D|-------------------------------------|-

Stave 3:

E|----------|-
B|----------|-
G|----------|-
D|-10-10-10-|-
A|-8--8--8--|-
D|----------|-

Stave 4:

E|-------------------------|-
B|-------------------------|-
G|-------------------------|-
D|-------------------------|-
A|-------------------------|-
D|-8-8-8-8-8-8-8-8-8-8-8-8-|-

Stave 5:

E|----------------------------------0-------------------------|-
B|----------------------------------0-------------------------|-
G|----------------------------------0-------------------------|-
D|-10-10-10-10-10-10-10-10-10---3p0-0----------10---------3r0-|-
A|-8--8--8--8--8--8--8--8--8-------------------8--------------|-
D|----------------------------0-------------------------0-----|-

Stave 6:

E|--------------------------------------------|-
B|--------------------------------------------|-
G|--------------------------------------------|-
D|-7---------------------7----------------3r0-|-
A|-5-5-6-3----8-3-6-0----5-5-6-3----8-3-6-----|-
D|---5-6-3----8-3-6-0------5-6-3----8-3-6-----|-

Stave 7:

E|---------|-
B|---------|-
G|---------|-
D|---------|-
A|-1-------|-
D|---3-4-1\|-

Stave 8:

E|-------------------------------------------------------------------------|-
B|-------------------------------------------------------------------------|-
G|-------------------------------------------------------------------------|-
D|------------------------3--------------------------------------------3r0-|-
A|-1----------1-------1----------1----------1-------1----------1-----------|-
D|---3-4-1------3-4-1---3---0------3-4-1------3-4-1---3-4-1------3-4-1-----|-

Stave 9:

E|-----------------------------------------------------------|-
B|-----------------------------------------------------------|-
G|-----------------------------------------------------------|-
D|-5p3r0-----------------------------------------------------|-
A|-------0h3r0-6------------------5p3r0----------------------|-
D|---------------6----6-6-6-6-6-6-------3-6-0----0-0-0-0-0-0-|-

Stave 10:

E|--------------------------------------------------------|-
B|--------------------------------------------------------|-
G|--------------------------------------------------------|-
D|-5p3r0--------------------------------------------------|-
A|-------5p3r0-6r0-5p3r0----------------------------------|-
D|-----------------------3-6----0-0-0-0-0----0-0-0-0-0----|-

Stave 11:

E|---------------------------------------------------------------------|-
B|---------------------------------------------------------------------|-
G|------------------------------15-18----------------------------------|-
D|-17p15r0----------------------15-18----------------------------------|-
A|---------17p15r0-18r0-17p15r0----------------------------------------|-
D|---------------------------------------0----0----0----0----0----0----|-

Stave 12:

E|-----------------------------------------------------|-
B|-----------------------------------------------------|-
G|-----------------------------------------------------|-
D|-----------------------------------------------------|-
A|-----------------------------------------------------|-
D|-0-0-0-0-0----0-0-0-0-0----0-0-0-0-0----0-0-0-0-0----|-

http://www.guitartabcreator.com
Guitar Tab Creator is intended to store guitar tab created through the tool. It currently does not support in-line text editing. Any text you place in here will be lost. If you need to comment on your tab, please use the "Tab Notes" section located below.