Sound will begin in 5 seconds

Every Time I Die - Glitches

Chords
01234567891011121314151617181920212223
E
B
G
D
A
E
B
0 1 2 3 4 5 6 7 8 9 10 11 12 13 14 15 16 17 18 19 20 21 22 23
Song Science #1: How Pros Use 6 Chords to Write Hit Songs
(/) Slide Up  (\) Slide Down  (h) Hammer On  (p) Pull Off  (b) Bend (r) Release (v) Vibrato

Stave 1:

E|------0-----------------------------0--------------------------
B|------0-----------------------------0--------------------------
G|------0-----------------------------0--------------------------
D|-1----0----2----2----0----2----2----0----2----1----------------
A|-1---------2----2----0----2----2---------2----1----0-0-0-0-0-0-
D|-----------2----2----0----2----2---------2----1----0-0-0-0-0-0-

Stave 2:

E|---------
B|---------
G|---------
D|---------
A|-6-3-5-2-
D|---------

Stave 3:

E|------------
B|------------
G|------------
D|-13-10-12-9-
A|------------
D|------------

Stave 4:

E|-------------------------------------------------------------
B|-------------------------------------------------------------
G|-------------------------------------------------------------
D|-2----1----3----6----5------1----3----6----6-----------------
A|-2----1----3----6----5----0-1----3----6----6----0-0-0----0-0-
D|-2----1----3----6----5----0-1----3----6----6----0-0-0----0-0-

Stave 5:

E|----------------------------0-
B|----------------------------0-
G|----------------------------0-
D|-------------5----4----3----0-
A|-0-0-0-0-0-0-3----2----1------
D|-0-0-0-0-0-0------------------

Stave 6:

E|---
B|-0-
G|-0-
D|-0-
A|---
D|---

Stave 7:

E|-------------
B|-------------
G|-------------
D|-------------
A|-------------
D|-2p1-3/6-2/5-

Stave 8:

E|--------------------------------------------------
B|----------------------------5-5-6-----------------
G|----------------------------3-3-4-----------------
D|-0------------------------------------------------
A|-0----0-0-0-0-0-0-0-0-0-0-0-------0-0-0-0-0-0-0-0-
D|-0----0-0-0-0-0-0-0-0-0-0-0-------0-0-0-0-0-0-0-0-

Stave 9:

E|-------------------
B|-------------------
G|-------------------
D|-------------------
A|-------------------
D|-14p13-15/18-14/17-

Stave 10:

E|---------------------------
B|---------------------------
G|---------------------------
D|-6----5----4----3----0-1-4-
A|-6----5----4----3----0-1-4-
D|-6----5----4----3----0-1/4-

Stave 11:

E|------------------
B|------------------
G|------------------
D|-10-9-8-7-6-5-4-3-
A|-10-9-8-7-6-5-4-3-
D|-10-9-8-7-6-5-4-3-

Stave 12:

E|----------------------------------------------------------------
B|-5-----------------------------5--------------------------------
G|-3-----------------------------3--------------------------------
D|-----------------1---1-3---3-4-----------------6----5----4----3-
A|---0-0-0-0-0-0-0-1-0-1-3-0-3-4---0-0-0-0-0-0-0-6----5----4----3-
D|---0-0-0-0-0-0-0-1-0-1/3-0-3/4---0-0-0-0-0-0-0-6----5----4----3-

Stave 13:

E|-------------------------------------------------------------------------------------------
B|-5-------------5-5-------------5-----------------------------------------------------------
G|-3-------------3-3-------------3-----------------------------------------------------------
D|---------------------1-3---3-4-----------------10----9----8----7----6----5-----------------
A|---0-0-0-0-0-0-----0-1-3-0-3-4---0-0-0-0-0-0-0-10----9----8----7----6----5-----------------
D|---0-0-0-0-0-0-----0-1/3-0-3/4---0-0-0-0-0-0-0-10----9----8----7----6----5-5-5-4-4-4-3-3-3-

Stave 14:

E|-------
B|-10----
G|-12b14-
D|-------
A|-------
D|-------

Stave 15:

E|-----0--------------0---
B|-----0--------------0---
G|-----0--------------0---
D|-1-2-0-2----1-2-0-1-0-2-
A|-1-2---2----1-2-0-1---2-
D|---2---2------2-0-1---2-

Stave 16:

E|-----0---------------------
B|-----0---------------------
G|-----0---------------------
D|-1-2-0-2----1-2------------
A|-1-2---2----1-2------------
D|---2---2------2-0-1-2----6-

Stave 17:

E|-----0-------------------------
B|-----0--------------5------5---
G|-----0--------------3------3---
D|-1-2-0-2----1-2-0-1---6------5-
A|-1-2---2----1-2-0-1---6------5-
D|---2---2------2-0-1---6------5-

http://www.guitartabcreator.com
Guitar Tab Creator is intended to store guitar tab created through the tool. It currently does not support in-line text editing. Any text you place in here will be lost. If you need to comment on your tab, please use the "Tab Notes" section located below.