Sound will begin in 5 seconds

Every Time I Die - Fear And Trembling

Chords
01234567891011121314151617181920212223
E
B
G
D
A
E
B
0 1 2 3 4 5 6 7 8 9 10 11 12 13 14 15 16 17 18 19 20 21 22 23
Song Science #1: How Pros Use 6 Chords to Write Hit Songs
(/) Slide Up  (\) Slide Down  (h) Hammer On  (p) Pull Off  (b) Bend (r) Release (v) Vibrato

Stave 1:

E|-------------------------3-------------------------------3--------|-
B|---3---------------3-------0-------3---------------3-------0------|-
G|-----3-----3/6-------3-0-----3-------3-----3/6-------3-0-----3----|-
D|------------------------------------------------------------------|-
A|------------------------------------------------------------------|-
A|-2-----0-2-----0-2-------------0-2-----0-2-----0-2----------------|-

Stave 2:

E|----------------------------------15-----------------------------------------15------|-
B|----15--------------------15---------0---------15--------------------15---------0----|-
G|-------15------15/18---------15-0------15---------15------15/18---------15-0------15-|-
D|-------------------------------------------------------------------------------------|-
A|-------------------------------------------------------------------------------------|-
A|-14-------0-14-------0-14-----------------0-14-------0-14-------0-14-----------------|-

Stave 3:

E|-----------------------------------------------------------------------|-
B|-----------------------------------------------------------------------|-
G|-----------------------------------------------------------------------|-
D|-----------------------------------------------------------------------|-
A|-----------------------------------------------------------------------|-
A|-0-2-2-2-3-3-6-6-0-0-2-2-3-3-6-6-0-0-0-0-2-2-3-3-6-6-0-2-2-2-3-3-6-6-0-|-

Stave 4:

E|-------------------------------------------|-
B|-------------------------------------------|-
G|-------------------------------------------|-
D|-------------------------------------------|-
A|-------------------------------------------|-
A|-12-12-12-11-11-5-5-6-12-12-12-11-11-5-5-6-|-

Stave 5:

E|---------------------------------------------------------------------|-
B|---------------------------------------------------------------------|-
G|---------------------------------------------------------------------|-
D|---------------------------------------------------------------------|-
A|---------------------------------------------------------------------|-
A|-2-2-2-3-3-6-6-0-0-2-2-3-3-6-6-0-0-0-0-2-2-3-3-6-6-0-2-2-2-3-3-6-6-0-|-

Stave 6:

E|-----------------------|-
B|-----------------10----|-
G|--------------12----12-|-
D|-12-11-8---------------|-
A|-13-12-9---------------|-
A|------------0----------|-

Stave 7:

E|-------------------------------------------|-
B|------10-----------10------10--------------|-
G|---12-----------12------12-----------------|-
D|--------------------------------12-11-8----|-
A|--------------------------------13-12-9----|-
A|-0-------0-12-0-------0-------0------------|-

Stave 8:

E|-------------------------------------------------|-
B|------10-----------10------10--------------------|-
G|---12-----------12------12-----------------------|-
D|--------------------------------12-11-9----12-9--|-
A|--------------------------------13-12-10-0-13-10-|-
A|-0-------0-12-0-------0-------0------------------|-

Stave 9:

E|-------------------------------------------|-
B|------10-----------10------10--------------|-
G|---12-----------12------12-----------------|-
D|--------------------------------12-11-8----|-
A|-------------------------------------------|-
A|-0-------0-12-0-------0-------0-13-12-9----|-

Stave 10:

E|-------------------------------------------|-
B|------10-----------10------10--------------|-
G|---12-----------12------12-----------------|-
D|--------------------------------12-11-9--8-|-
A|-------------------------------------------|-
A|-0-------0-12-0-------0-------0-13-12-10-9-|-

Stave 11:

E|-----------------------------------------------------------------------|-
B|-----------------------------------------------------------------------|-
G|-----------------------------------------------------------------------|-
D|-----------------------------------------------------------------------|-
A|-----------------------------------------------------------------------|-
A|-0-3-5-0-5-0-3-5-0-3-5-0-6-5-2----0-3-5-0-5-0-3-5-0-3-5-0-6-5-2----0-0-|-

Stave 12:

E|---------------------------------------------------------------------------------------|-
B|---------------------------------------------------------------------------------------|-
G|---------------------------------------------------------------------------------------|-
D|----------------------------------------------------------------------12-11-9----12-9--|-
A|----------------------------------------------------------------------13-12-10-0-13-10-|-
A|-0-10-12-0-12-10----0-10-12-0-13-12-9----0-10-12-0-12-10----0-10-12-0------------------|-

Stave 13:

E|-------------------------------------------|-
B|------15-----------15------15--------------|-
G|---17-----------17------17-----------------|-
D|--------------------------------12-11-8----|-
A|-------------------------------------------|-
A|-0-------0-12-0-------0-------0-13-12-9----|-

Stave 14:

E|---------------------------------------------------|-
B|------15-----------15------15----------------------|-
G|---17-----------17------17-------------------------|-
D|--------------------------------12-11-9----12-9----|-
A|--------------------------------13-12-10-0-13-10---|-
A|-0-------0-12-0-------0-------0------------------0-|-

http://www.guitartabcreator.com
Guitar Tab Creator is intended to store guitar tab created through the tool. It currently does not support in-line text editing. Any text you place in here will be lost. If you need to comment on your tab, please use the "Tab Notes" section located below.