Sound will begin in 5 seconds

Every Time I Die - C++

Chords
01234567891011121314151617181920212223
E
B
G
D
A
E
B
0 1 2 3 4 5 6 7 8 9 10 11 12 13 14 15 16 17 18 19 20 21 22 23
Song Science #1: How Pros Use 6 Chords to Write Hit Songs
(/) Slide Up  (\) Slide Down  (h) Hammer On  (p) Pull Off  (b) Bend (r) Release (v) Vibrato

Stave 1:

E|-0-
B|-0-
G|-0-
D|-0-
A|-0-
D|-0-

Stave 2:

E|---0-----0------0---------0---
B|---0-----0------0---------0---
G|---0-----0------0---------0---
D|-7-0-3-5-0-2----0-7-0-3-5-0-2-
A|-7---3-5---2------7-0-3-5---2-
D|-7---3-5---2------7-0-3-5---2-

Stave 3:

E|------------------------0-----------------------------
B|------------------------0-----------------------------
G|------------------------0-----------------------------
D|-2-2-2-2-2-2-2-2--------0-7-7-7-3-3-3-5-5-5-5-5-5-x-x-
A|-2-2-2-2-2-2-2-2----------7-7-7-3-3-3-5-5-5-5-5-5-x-x-
D|-2-2-2-2-2-2-2-2-6/15\0---7-7-7-3-3-3-5-5-5-5-5-5-x-x-

Stave 4:

E|--------------
B|--------------
G|--------------
D|-7----3-5---2-
A|-7----3-5-0-2-
D|-7----3-5-0-2-

Stave 5:

E|-0---------0-------
B|-0---------0-------
G|-0---------0-------
D|-0-7-0-3-5-0-2-3-2-
A|---7-0-3-5---2-3-2-
D|---7-0-3-5---2-3-2-

Stave 6:

E|---------------------------------------
B|---------------------------------------
G|---------------------------------------
D|-3-2-0-------0-3-2-0-------------------
A|-3-2-0-------0-3-2-0-14-14-14-14-14-14-
D|-3-2-0-15-14-0-3-2-0-14-14-14-14-14-14-

Stave 7:

E|----------------------------------------------
B|----------------------------------------------
G|----------------------------------------------
D|----------------------------------------------
A|-14-14-14-14-14-14-14-14-14-14-14-14-14-14-14-
D|-14-14-14-14-14-14-14-14-14-14-14-14-14-14-14\

Stave 8:

E|-------------------------------------------------------------
B|-------------------------------------------------------------
G|---------------------------------9-9----5-5----7-7-7-7-7-----
D|-2-2-2-2-2-2-2-2-2-2-2-2-2-2-2-2-7-7----3-3----5-5-5-5-5-x-x-
A|-2-2-2-2-2-2-2-2-2-2-2-2-2-2-2-2-7-7----3-3----5-5-5-5-5-x-x-
D|-2-2-2-2-2-2-2-2-2-2-2-2-2-2-2-2-7-7----3-3----5-5-5-5-5-x-x-

Stave 9:

E|----------0----------0-
B|----------0----------0-
G|----------0----------0-
D|-2----0-2-0-2----0-2-0-
A|-2----0-2---2----0-2---
D|-2----0-2---2----0-2---

Stave 10:

E|-------------
B|-------------
G|-------------
D|-0-0-0-0-0-0-
A|-0-0-0-0-0-0-
D|-0-0-0-0-0-0-

Stave 11:

E|----------
B|----------
G|----------
D|-0-0----0-
A|-0-0----0-
D|-0-0----0-

Stave 12:

E|-------------------------
B|-------------------------
G|-------------------------
D|-------------------------
A|-5p3r0-3r0---------3-----
D|----------h5-0h3h5---5p3-

Stave 13:

E|-------------
B|-------------
G|-------------
D|-0-2----2-10-
A|-0-2----2-8--
D|-0-2----2----

Stave 14:

E|----------0------------
B|----------0------------
G|----------0------------
D|-2----0-2-0-2----0-2-0-
A|-2----0-2---2----0-2-0-
D|-2----0-2---2----0-2-0-

Stave 15:

E|------------------------------------
B|------------------------------------
G|------------------------------------
D|-0-2----2----10----2-10-10-10-10-10-
A|-0-2----2----8-----2-8--8--8--8--8--
D|-0-2----2----------2----------------

Stave 16:

E|-----------------------
B|-----------------------
G|-----------------------
D|-3-2-0-------0-3-2-2-2-
A|-3-2-0-------0-3-2-2-2-
D|-3-2-0-15-14-0-3-2-2-2-

http://www.guitartabcreator.com
Guitar Tab Creator is intended to store guitar tab created through the tool. It currently does not support in-line text editing. Any text you place in here will be lost. If you need to comment on your tab, please use the "Tab Notes" section located below.