Sound will begin in 5 seconds

Every Time I Die - Awful Lot

Chords
01234567891011121314151617181920212223
E
B
G
D
A
E
B
0 1 2 3 4 5 6 7 8 9 10 11 12 13 14 15 16 17 18 19 20 21 22 23
Song Science #1: How Pros Use 6 Chords to Write Hit Songs
(/) Slide Up  (\) Slide Down  (h) Hammer On  (p) Pull Off  (b) Bend (r) Release (v) Vibrato

Stave 1:

E|----------------------------------------------------------------------|-
B|----------------------------------------------------------------------|-
G|-12----0--12-0--12-11----0--11-0--11-14----0--14-0--14-17----0--17-17-|-
D|-11----11-11-11-11-11----11-11-11-11-14----14-14-14-14-17----17-17-17-|-
A|----------------------------------------------------------------------|-
A|----------------------------------------------------------------------|-

Stave 2:

E|-------------------------------------------------------|-
B|-------------------------------------------------------|-
G|-------------------------------------------------------|-
D|-------------------------------------------------------|-
A|-4----0-4-0-4-7----0-7-0-7-10------------10------------|-
A|-4----0-4-0-4-7----0-7-0-7-10----0-0-0-0-10----0-0-0-0-|-

Stave 3:

E|-------------------------------------------|-
B|-------------------------------------------|-
G|-------------------------------------------|-
D|-------------------------------------------|-
A|-2----0-2-0-2-3----0-3-0-3-5-------5-------|-
A|-2----0-2-0-2-3----0-3-0-3-5-0-0-0-5-0-0-0-|-

Stave 4:

E|-------------------------------------------|-
B|-------------------------------------------|-
G|-------------------------------------------|-
D|-------------------------------------------|-
A|-2----0-2-0-2-3----0-3-0-3-5-------9-0-9-8-|-
A|-2----0-2-0-2-3----0-3-0-3-5-0-0-0-9-0-9-8-|-

Stave 5:

E|-------------------------------------------|-
B|-------------------------------------------|-
G|-------------------14b16-------12----11----|-
D|-------------------------------10----9-----|-
A|----14\12---7/9----------------10----9-----|-
A|-10-------9-----14-------20----------------|-

Stave 6:

E|---------------------------------|-
B|---------------------------------|-
G|---------------------------------|-
D|---------------------------------|-
A|---------------------------------|-
A|-20----0----0----20----0----0----|-

Stave 7:

E|---------------------------------------------------------|-
B|---------------------------------------------------------|-
G|---------------------------------------------------------|-
D|---------------------------------------------------------|-
A|---------------------------------------------------------|-
A|-20----0-0-0-0-20----0-0-0-15/20----0-0-0-0-2----0-0-0-0-|-

Stave 8:

E|-------------------------------------------------------|-
B|-------------------------------------------------------|-
G|-------------------------------------------------------|-
D|-------------------------------------------------------|-
A|-------------------------------------------------------|-
A|-20----0-0-0-0-20----0-0-0-15/20----0-0-0-0-0----------|-

Stave 9:

E|---------------------------------------------------|-
B|---------------------------------------------------|-
G|---------------------------------------------------|-
D|---------------------------------------------------|-
A|-2----0-2-0-2-2----0-2-0-2-2----0-2-0-2-3--------0-|-
A|-2----0-2-0-2-2----0-2-0-2-2----0-2-0-2-3----0-0-0-|-

Stave 10:

E|-------------------------------------------------|-
B|-------------------------------------------------|-
G|-11-11-11-11-11-11-11-11-11-11-11-11-11-11-11-11-|-
D|-9--9--9--9--9--9--9--9--9--9--9--9--9--9--9--9--|-
A|-------------------------------------------------|-
A|-------------------------------------------------|-

Stave 11:

E|-------------------------------------------------------------------------------------------|-
B|-------------------------------------------------------------------------------------------|-
G|-11-11-11-11-11-11-11-11-11-11-11-11-11/12\11----------------------------------------------|-
D|-9--9--9--9--9--9--9--9--9--9--9--9--9--10-9----12-12-12-12-12/13\12---9-9-9-9-10-10-10-10-|-
A|----------------------------------------------0-10-10-10-10-10-11-10-0-7-7-7-7-8--8--8--8--|-
A|-------------------------------------------------------------------------------------------|-

Stave 12:

E|----------------------------------------------------------------|-
B|----------------------------------------------------------------|-
G|----------------------------------------------------------------|-
D|----------------------------------------------------------------|-
A|-9-9-9-9-9-9-9-9-9-9-9-9-9/10\9---5-5-5-5/6\5---2-2-2-2-3-3-3-3-|-
A|-9-9-9-9-9-9-9-9-9-9-9-9-9-10-9-0-5-5-5-5-6-5-0-2-2-2-2-3-3-3-3-|-

Stave 13:

E|------------------------------------------------------------|-
B|----12-10----------10-12r10---------------------------------|-
G|------------9-11------------11-------11-----9---------------|-
D|-----------------9----------------------9-----9-------------|-
A|-10-------9-----------------------10------9-----9-12-7/9----|-
A|------------------------------------------------------------|-

http://www.guitartabcreator.com
Guitar Tab Creator is intended to store guitar tab created through the tool. It currently does not support in-line text editing. Any text you place in here will be lost. If you need to comment on your tab, please use the "Tab Notes" section located below.