Sound will begin in 5 seconds

Every Time I Die - 1977

Chords
01234567891011121314151617181920212223
E
B
G
D
A
E
B
0 1 2 3 4 5 6 7 8 9 10 11 12 13 14 15 16 17 18 19 20 21 22 23
Top Courses in Music 160x600
(/) Slide Up  (\) Slide Down  (h) Hammer On  (p) Pull Off  (b) Bend (r) Release (v) Vibrato

Stave 1:

D|---------------------------------------|-
A|---------------------------------------|-
F|-8----7--------------------------------|-
C|-8----7----------8----------8----10----|-
G|-----------0-0-0-8----0-0-0-8----10----|-
C|-----------0-0-0-8----0-0-0-8----10----|-

Stave 2:

D|--------------------------------------------------------------|-
A|--------------------------------------------------------------|-
F|--------------------------------------------------------------|-
C|--------------------------------------------------------------|-
G|-9p8r0------------------------------9p8r0---------------------|-
C|-------8h10----10-10-10-10-10-10-10-------8h10----0-0-0-0-0-0-|-

Stave 3:

D|--------------------------------------------|-
A|--------------------------------------------|-
F|-10----9----8----------8----8---------------|-
C|-10----9----8----------8----8---------------|-
G|-----------------0-0-0-----------0-0-0------|-
C|-----------------0-0-0-----------0-0-0-0----|-

Stave 4:

D|-3p2r0----------------------------|-
A|-------3p2r0----------------------|-
F|-------------3p2r0----------------|-
C|-------------------1----2----4----|-
G|-------------------1----2----4----|-
C|-------------------1----2----4----|-

Stave 5:

D|-----------------------------------|-
A|-----------------------------------|-
F|-----------------------------------|-
C|-6-6------6-6------6-6------2----2-|-
G|-6-6----0-6-6----0-6-6----0-2----2-|-
C|-6-6----0-6-6----0-6-6----0-2----2-|-

Stave 6:

D|-------------------------------------|-
A|-------------------------------------|-
F|-------------------------------------|-
C|-6-6------6-6------5----4----------2-|-
G|-6-6----0-6-6----0-3----2----0-0-0-2-|-
C|-6-6----0-6-6----0-----------0-0-0-2-|-

Stave 7:

D|-------------------------------------------------------------------------------|-
A|-------------------------------------------------------------------------------|-
F|-------------------------------------------------------------------------------|-
C|-6-6------6-6------------------------------------------------------------------|-
G|-6-6----0-6-6----0-6p5r0-------3p2r0-------------------------------------------|-
C|-6-6----0-6-6----0-------6p5r0-------3p2r0-1-1-2-2-4-4-4-4-2-2-3-3-5----5----5-|-

Stave 8:

D|-3p2r0-------------|-
A|-------3p2r0-------|-
F|-------------3p2r0-|-
C|-------------------|-
G|-------------------|-
C|-------------------|-

Stave 9:

D|-------------------------------------------------------------|-
A|-------------------------------------------------------------|-
F|-------------------------------------------------------------|-
C|-------------------------------------------------------------|-
G|-6p5r0-------3p2r0-------------------------------------------|-
C|-------6p5r0-------3p2r0-1----2----4-------2----3----5-------|-

Stave 10:

D|----------------------------------------|-
A|----------------------------------------|-
F|----------------------------------------|-
C|----------------------------------------|-
G|-4----0-0-0-0-4----0-0-0-0-4----0-0-0-0-|-
C|-3----0-0-0-0-3----0-0-0-0-3----0-0-0-0-|-

Stave 11:

D|---------------------------------------------------------------|-
A|---------------1-----4-----6-----------------------------------|-
F|---------2---2---2-5---5-7---7---------------------------------|-
C|---4---4---4-------------------8-8-8-7-7-7-2-2-2-2-2-2-2-2-2-2-|-
G|-5---5-------------------------8-8-8-7-7-7-2-2-2-2-2-2-2-2-2-2-|-
C|-------------------------------8-8-8-7-7-7-2-2-2-2-2-2-2-2-2-2-|-

Stave 12:

D|-------------------------------|-
A|---------------1-----4-----6---|-
F|---------2---2---2-5---5-7---7-|-
C|---4---4---4-------------------|-
G|-5---5-------------------------|-
C|-------------------------------|-

Stave 13:

D|---------------------------------------------------------|-
A|-7-------------7-------------7-------------7-------------|-
F|-10------------10------------10------------10------------|-
C|---------------------------------------------------------|-
G|-------0-0-0-0-------0-0-0-0-------0-0-0-0-------0-0-0-0-|-
C|-------0-0-0-0-------0-0-0-0-------0-0-0-0-------0-0-0-0-|-

Stave 14:

D|-------------------------------------|-
A|-------------------------------------|-
F|-------------------------------------|-
C|-1----2----4-------2----3----5-------|-
G|-1----2----4-------2----3----5-------|-
C|-1----2----4-------2----3----5-------|-

Stave 15:

D|-------------------------------------------------------|-
A|-------------------------------------------------------|-
F|-------------------------------------------------------|-
C|-6-6------6-6------1----2----4-------2----3----5-------|-
G|-6-6----0-6-6----0-1----2----4-------2----3----5-------|-
C|-6-6----0-6-6----0-1----2----4-------2----3----5-------|-

http://www.guitartabcreator.com
Guitar Tab Creator is intended to store guitar tab created through the tool. It currently does not support in-line text editing. Any text you place in here will be lost. If you need to comment on your tab, please use the "Tab Notes" section located below.