Sound will begin in 5 seconds

Biffy Clyro - Wolves Of Winter

Chords
01234567891011121314151617181920212223
E
B
G
D
A
E
B
0 1 2 3 4 5 6 7 8 9 10 11 12 13 14 15 16 17 18 19 20 21 22 23
Song Science #1: How Pros Use 6 Chords to Write Hit Songs
(/) Slide Up  (\) Slide Down  (h) Hammer On  (p) Pull Off  (b) Bend (r) Release (v) Vibrato

Stave 1:

C|-0-0----0-0----
G|-0-0----0-0----
F|-2-2----2-2----
C|-0-0----0-0----
G|-0-0----0-0----
C|-0-0----0-0----

Stave 2:

C|---------------------
G|---------------------
F|-----7-7-7-7-7-7-7-7-
C|-0-0-----------------
G|-0-0-5-5-5-5-5-5-5-5-
C|-0-0-----------------

Stave 3:

C|---------------------
G|---------------------
F|-----5-5-5-5-5-5-5-5-
C|-0-0-----------------
G|-0-0-3-3-3-3-3-3-3-3-
C|-0-0-----------------

Stave 4:

C|---------------------
G|---------------------
F|-----9-9-9-9-9-9-9-9-
C|-0-0-----------------
G|-0-0-7-7-7-7-7-7-7-7-
C|-0-0-----------------

Stave 5:

C|-----------------------------
G|-----------------------------
F|-----11-11-11-11-11-11-11-11-
C|-0-0-------------------------
G|-0-0-9--9--9--9--9--9--9--9--
C|-0-0-------------------------

Stave 6:

C|---------------------------------------------
G|---------------------------------------------
F|---------------7-7-7-7-7-7-7-7-----7-7-7-7-7-
C|-0-0-------0-0-----------------0-0-----------
G|-0-0-------0-0-5-5-5-5-5-5-5-5-0-0-5-5-5-5-5-
C|-0-0-------0-0-----------------0-0-----------

Stave 7:

C|---------------------------------------------
G|---------------------------------------------
F|---------------7-7-7-7-7-7-7-7-----7-7-7-7-7-
C|-5-5-------3-3-----------------2-2-----------
G|-5-5-------3-3-5-5-5-5-5-5-5-5-2-2-5-5-5-5-5-
C|-5-5-------3-3-----------------2-2-----------

Stave 8:

C|-----------------
G|-----------------
F|-7-7-7-7-7-7-7-7-
C|-----------------
G|-5-5-5-5-5-5-5-5-
C|-----------------

Stave 9:

C|------------------------------------------------------------------------
G|------------------------------------------------------------------------
F|------------------------------------------------------------------------
C|-0-0-------0-0----0-0-------0-0----5-5-------5-5----3-3-------2-2-------
G|-0-0-------0-0----0-0-------0-0----5-5-------5-5----3-3-------2-2-------
C|-0-0-------0-0----0-0-------0-0----5-5-------5-5----3-3-------2-2-------

Stave 10:

C|---------------------------------------------------
G|---------------------------------------------------
F|-6/7-7-7-7-7-7-7-7-7-7-7-7-7-7-7-7-7-7-7-7-7-7-7-7-
C|---------------------------------------------------
G|---------------------------------------------------
C|---------------------------------------------------

Stave 11:

C|------------------------------------------------------------------------------------------
G|------------------------------------------------------------------------------------------
F|-7-7----7-7----7-7-7----7-7----7-7----7-7-7----7-7----7-7----7-7-7----7-7----7-7----7-7-7-
C|-8-8----8-8----8-8-8----5-5----5-5----5-5-5----0-0----0-0----0-0-0----9-9----9-9----9-9-9-
G|-8-8----8-8----8-8-8----5-5----5-5----5-5-5----0-0----0-0----0-0-0----9-9----9-9----9-9-9-
C|-8-8----8-8----8-8-8----5-5----5-5----5-5-5----0-0----0-0----0-0-0----9-9----9-9----9-9-9-

Stave 12:

C|--------------------------------------------
G|--------------------------------------------
F|-7-7----7-7----7-7-7----6-6----6-6----6-6-6-
C|-8-8----8-8----8-8-8----7-7----7-7----7-7-7-
G|-8-8----8-8----8-8-8----7-7----7-7----7-7-7-
C|-8-8----8-8----8-8-8----7-7----7-7----7-7-7-

Stave 13:

C|-------------------------------------------------
G|-------------------------------------------------
F|-------------------------------15-15-15-15-14-14-
C|-------------------------------------------------
G|-------------------------------13-13-13-13\12-12-
C|-0----0----4----4----5----5----------------------

Stave 14:

C|----------------------------------------------------
G|----------------------------------------------------
F|-19----14----18----14----19----14----15-15-15-17-19-
C|----------------------------------------------------
G|-17----12----16----12----17----12----13-13-13-15/17-
C|----------------------------------------------------

Stave 15:

C|------------------------------------------
G|------------------------------------------
F|-------14----12----9----7----6/9\7----3\2-
C|-12---------------------------------------
G|------------------------------------------
C|------------------------------------------

Stave 16:

C|---------------------------------------------
G|---------------------------------------------
F|-2-2-------2-2---------------------------5/9-
C|-0-0-------0-0-------5-5-------3-3-----------
G|-0-0-------0-0-------5-5-------3-3-----------
C|-0-0-------0-0-------5-5-------3-3-----------

Stave 17:

C|-------------------------------------------------------------------------
G|-------------------------------------------------------------------------
F|-2----2-2-2-2----2-2-2-2----2-2-2-2----2-2-2-4----4-4-4-4----------------
C|-0----0-0-0-0----0-0-0-0----0-0-0-0----0-0-0-0----0-0-0-0----8-8-8-8-7-7-
G|-0----0-0-0-0----0-0-0---------------------------------------8-8-8-8-7-7-
C|-0----0-0-0-0----0-0-0-4----4-4-4-4----4-4-4-5----5-5-5-5----8-8-8-8-7-7-

Stave 18:

C|---------------------------------------------------------------------------------------------------
G|---------------------------------------------------------------------------------------------------
F|--------7-9-10-12b14-12b14----12b14-12p10h12----10-9-10-9-10-10-9-------10-9-10-9-10-10-9----------
C|-7-8-10-----------------------------------------------------------10----------------------10/12----
G|---------------------------------------------------------------------------------------------------
C|---------------------------------------------------------------------------------------------------

Stave 19:

C|---------------------------------15p14r0---------15p14r0---------15p14r0---------15p14r0-15b17-
G|-------------------------17p15r0---------17p15r0---------17p15r0---------17p15r0---------------
F|----------12-14-15-17--------------------------------------------------------------------------
C|-12-14-15--------------------------------------------------------------------------------------
G|-----------------------------------------------------------------------------------------------
C|-----------------------------------------------------------------------------------------------

Stave 20:

C|-15-14-15-14-15-15p14-------------------------------------------------------
G|----------------------15----------------------------------------18b20-------
F|-------------------------------------17----------17-17b19-17b19-------------
C|----------------------------14-15-17----14-15-17----------------------------
G|----------------------------------------------------------------------------
C|----------------------------------------------------------------------------

Stave 21:

C|-------------------------------------------------------------------------------------------------------
G|-------------------------------------------------------------------------------------------------------
F|-------------------------------------------------------------------------------------------------------
C|-0-0----0-0----0-0-0----5-5----5-5----5-5-5----10-10----10-10----10-10-10----0-0----0-0----0-0-0-0-0-0-
G|-0-0----0-0----0-0-0----5-5----5-5----5-5-5----10-10----10-10----10-10-10----0-0----0-0----0-0-0-0-0-0-
C|-0-0----0-0----0-0-0----5-5----5-5----5-5-5----10-10----10-10----10-10-10----0-0----0-0----0-0-0-0-0-0-

Stave 22:

C|-------------------------------------------------------
G|-------------------------------------------------------
F|--------2-2--------7-7-7-7-7-7-7-7-----7-7-7-7-7-7-7-7-
C|-0-0----0-0----5-5-----------------5-5-----------------
G|-0-0-----------5-5-5-5-5-5-5-5-5-5-5-5-5-5-5-5-5-5-5-5-
C|-0-0----4-4----5-5-----------------5-5-----------------

http://www.guitartabcreator.com
Guitar Tab Creator is intended to store guitar tab created through the tool. It currently does not support in-line text editing. Any text you place in here will be lost. If you need to comment on your tab, please use the "Tab Notes" section located below.