Sound will begin in 5 seconds

20 bucks of fun

Chords
01234567891011121314151617181920212223
E
B
G
D
A
E
B
0 1 2 3 4 5 6 7 8 9 10 11 12 13 14 15 16 17 18 19 20 21 22 23
Top Courses in Music 160x600
(/) Slide Up  (\) Slide Down  (h) Hammer On  (p) Pull Off  (b) Bend (r) Release (v) Vibrato

Stave 1:

E|----------------------------------------------------
B|----------------------------------------------------
G|----------------------------------------------------
D|--1--1--1--1--1/9--7--7\5--5--5--5--5--5/9--7--7\5--
A|--1--1--1--1--1------------5--5--5--5--5------------
E|--0--0--0--0--0------------3--3--3--3--3------------

Stave 2:

E|--------------------------------------------------
B|--------------------------------------------------
G|--------------------------------------------------
D|--2--2--2--2--2--2--2--2--5--5--5--5--5--5--5--5--
A|--2--2--2--2--2--2--2--2--5--5--5--5--5--5--5--5--
E|--0--0--0--0--0--0--0--0--3--3--3--3--3--3--3--3--

Stave 3:

E|---------------------------------------------
B|---------------------------------------------
G|---------------------------------------------
D|--2--2--2--2--2--12--9--5--5--5--5--5--9--7--
A|--2--2--2--2--2---------5--5--5--5--5--------
E|--0--0--0--0--0---------3--3--3--3--3--------

Stave 4:

E|------------------------------------------------------------------------------------------------------
B|------------------------------------------------------------------------------------------------------
G|------------------------------------------------------------------------------------------------7--7--
D|----------------------9--9----------------------9--9--7--7--7--7--9--9--5--5--7--7--7--7--9--9--------
A|--7--7--7--7--10--10--------7--7--7--7--10--10--------------------------------------------------------
E|------------------------------------------------------------------------------------------------------

Stave 5:

E|------------------------------------------------------------------------------------------------------
B|------------------------------------------------------------------------------------------------------
G|------------------------------------------------------------------------------------------------7--7--
D|--------------9--9------------------------------9--9--7--7--7--7--9--9--5--5--7--7--7--7--9--9--------
A|--7--7--7--7--------10--10--7--7--7--7--10--10--------------------------------------------------------
E|------------------------------------------------------------------------------------------------------

Stave 6:

E|---------------------------------------------------------------------------
B|---------------------------------------------------------------------------
G|--9--7-----7---------------------------------------------------------------
D|--------9-----9--7--9b------------9---------7--9--7-----9---------7--9--9--
A|-------------------------------------7--10-----------------7--10-----------
E|---------------------------------------------------------------------------

http://www.guitartabcreator.com
Guitar Tab Creator is intended to store guitar tab created through the tool. It currently does not support in-line text editing. Any text you place in here will be lost. If you need to comment on your tab, please use the "Tab Notes" section located below.