Sound will begin in 5 seconds

18/10/2016 - Pattern 1

01234567891011121314151617181920212223
E
B
G
D
A
E
B
0 1 2 3 4 5 6 7 8 9 10 11 12 13 14 15 16 17 18 19 20 21 22 23
Top Courses in Music 160x600
(/) Slide Up  (\) Slide Down  (h) Hammer On  (p) Pull Off  (b) Bend (r) Release (v) Vibrato

Stave 1:

E|-----------|-----------|-----------|-----------|--------------|----------------|----------------|-
B|-3---------|-5---------|-7---------|-8---------|-10-----------|-12-------------|-14-------------|-
G|---4-2-----|---6-4-----|---7-6-----|---9-7-----|----11-9------|----12-11-------|----14-12-------|-
D|-------4-2-|-------5-4-|-------7-5-|-------9-7-|---------11-9-|----------12-11-|----------14-12-|-
A|-----------|-----------|-----------|-----------|--------------|----------------|----------------|-
E|-----------|-----------|-----------|-----------|--------------|----------------|----------------|-

Stave 2:

E|-----------|-----------|-----------|-----------|--------------|----------------|----------------|-
B|-3---------|-5---------|-6---------|-8---------|-10-----------|-12-------------|-14-------------|-
G|---4-2-----|---6-4-----|---7-6-----|---9-7-----|----10-9------|----12-10-------|----14-12-------|-
D|-------3-2-|-------5-3-|-------7-5-|-------9-7-|---------11-9-|----------12-11-|----------14-12-|-
A|-----------|-----------|-----------|-----------|--------------|----------------|----------------|-
E|-----------|-----------|-----------|-----------|--------------|----------------|----------------|-

Stave 3:

E|-----------|-----------|-----------|-----------|--------------|----------------|----------------|-
B|-3---------|-5---------|-6---------|-8---------|-10-----------|-11-------------|-14-------------|-
G|---3-2-----|---6-3-----|---7-6-----|---9-7-----|----10-9------|----12-10-------|----14-12-------|-
D|-------3-2-|-------5-3-|-------7-5-|-------8-7-|---------11-8-|----------12-11-|----------14-12-|-
A|-----------|-----------|-----------|-----------|--------------|----------------|----------------|-
E|-----------|-----------|-----------|-----------|--------------|----------------|----------------|-

Stave 4:

E|-----------|-----------|-----------|-----------|--------------|----------------|----------------|-
B|-3---------|-5---------|-7---------|-8---------|-10-----------|-11-------------|-14-------------|-
G|---3-2-----|---6-3-----|---7-6-----|---9-7-----|----11-9------|----12-11-------|----14-12-------|-
D|-------4-2-|-------5-4-|-------7-5-|-------8-7-|---------11-8-|----------12-11-|----------14-12-|-
A|-----------|-----------|-----------|-----------|--------------|----------------|----------------|-
E|-----------|-----------|-----------|-----------|--------------|----------------|----------------|-

Stave 5:

E|-----------|-----------|-----------|-----------|-------------|---------------|----------------|----------------
B|-3---------|-4---------|-6---------|-7---------|-9-----------|-10------------|-12-------------|-13-------------
G|---4-2-----|---5-4-----|---7-5-----|---8-7-----|---10-8------|----11-10------|----13-11-------|----14-13-------
D|-------4-1-|-------6-3-|-------7-4-|-------9-7-|--------10-7-|----------12-9-|----------13-10-|----------15-12-
A|-----------|-----------|-----------|-----------|-------------|---------------|----------------|----------------
E|-----------|-----------|-----------|-----------|-------------|---------------|----------------|----------------

http://www.guitartabcreator.com
Guitar Tab Creator is intended to store guitar tab created through the tool. It currently does not support in-line text editing. Any text you place in here will be lost. If you need to comment on your tab, please use the "Tab Notes" section located below.