Sound will begin in 5 seconds

Jake, October 1st 2016

Chords
01234567891011121314151617181920212223
E
B
G
D
A
E
B
0 1 2 3 4 5 6 7 8 9 10 11 12 13 14 15 16 17 18 19 20 21 22 23
Song Science #1: How Pros Use 6 Chords to Write Hit Songs
(/) Slide Up  (\) Slide Down  (h) Hammer On  (p) Pull Off  (b) Bend (r) Release (v) Vibrato

Stave 1:

E|--5--7--5--3--------------------------------
B|--6--6--6--6-----5--6--5--3-----5--4--3--4--
G|--5--5--5--5-----5--5--5--5-----4--4--4--4--
D|-----------------3--3--3--3-----3--3--3--3--
A|--5--5--5--5-----5--5--5--5-----------------
E|--------------------------------3--3--3--3--

Stave 2:

E|-----------------------------
B|--5--3--1--0-----1--1--1--2--
G|--4--4--4--0-----4--2--0--0--
D|--5--2--2--2-----2--2--2--2--
A|--3--3--3--3-----0--0--0--0--
E|-----------------------------

Stave 3:

E|--7--9--7--5--------------------------------
B|--8--8--8--8-----7--8--7--5-----7--6--5--6--
G|--7--7--7--7-----7--7--7--7-----6--6--6--6--
D|-----------------5--5--5--5-----5--5--5--5--
A|--7--7--7--7-----7--7--7--7-----------------
E|--------------------------------5--5--5--5--

Stave 4:

E|-----------------------------
B|--7--5--3--2-----3--3--3--4--
G|--6--6--6--2-----6--4--2--2--
D|--7--4--4--4-----4--4--4--4--
A|--5--5--5--5-----2--2--2--2--
E|-----------------------------

http://www.guitartabcreator.com
Guitar Tab Creator is intended to store guitar tab created through the tool. It currently does not support in-line text editing. Any text you place in here will be lost. If you need to comment on your tab, please use the "Tab Notes" section located below.