Sound will begin in 5 seconds

Jake, October 13th, 2016

Chords
01234567891011121314151617181920212223
E
B
G
D
A
E
B
0 1 2 3 4 5 6 7 8 9 10 11 12 13 14 15 16 17 18 19 20 21 22 23
Top Courses in Music 160x600
(/) Slide Up  (\) Slide Down  (h) Hammer On  (p) Pull Off  (b) Bend (r) Release (v) Vibrato

Stave 1:

E|--------0--1--3--5--7--8--10--12--
B|--1--3----------------------------
G|--------0--2--4--5--7--9--10--12--
D|--2--3----------------------------
A|----------------------------------
E|----------------------------------

Stave 2:

E|--12--10--8--7--5--3--1--0--------
B|----------------------------3--1--
G|--12--10--9--7--5--4--2--0--------
D|----------------------------3--2--
A|----------------------------------
E|----------------------------------

Stave 3:

E|-----------1--
B|--1--3--5-----
G|-----------2--
D|--2--3--5-----
A|--------------
E|--------------

http://www.guitartabcreator.com
Guitar Tab Creator is intended to store guitar tab created through the tool. It currently does not support in-line text editing. Any text you place in here will be lost. If you need to comment on your tab, please use the "Tab Notes" section located below.