Sound will begin in 5 seconds

StonerShuggah EC Idea 9.17.16

Chords
01234567891011121314151617181920212223
E
B
G
D
A
E
B
0 1 2 3 4 5 6 7 8 9 10 11 12 13 14 15 16 17 18 19 20 21 22 23
Song Science #1: How Pros Use 6 Chords to Write Hit Songs
(/) Slide Up  (\) Slide Down  (h) Hammer On  (p) Pull Off  (b) Bend (r) Release (v) Vibrato

Stave 1:

E|-----------------------------------------|--------------------------------------|--
B|-----------------------------------------|--------------------------------------|--
G|-------------------------10------9---10--|----------------------10------9---10--|--
D|---------------------12------12--10--12--|------------------12------12--10--12--|--
A|-----------------10----------------------|-----7--8-----10----------------------|--
D|--0--0--0--0--0--------------------------|--0--------0--------------------------|--

Stave 2:

E|---------------------------------------------------|--
B|---------------------------------------------------|--
G|-----9-----10-----7-----9-----5-----4-----7-----5--|--
D|-----7-----7------9-----7-----5-----5-----4-----2--|--
A|--0-----0------0-----0-----0-----0-----0-----0-----|--
D|---------------------------------------------------|--

Stave 3:

E|-----------------------------------------|-------------------------------|--
B|-----------------------------------------|-------------------------------|--
G|-----------------------------------------|-------------------------------|--
D|-----------------------------3--3--3--3--|-------------------------------|--
A|-----------------------------0--0--0--0--|---------------------5h7--5\3--|--
D|--0--2h3--0--2h3--0--2h3--0--------------|--0--2h3--0--2h3--0------------|--

Stave 4:

E|-------------------------------------|-----------------------------------------|--
B|-------------------------------------|-----------------------------------------|--
G|---------------------10------9---10--|---------------------10------------------|--
D|-----------------12------12--10--12--|-----------------12------12--10--12------|--
A|-----7h8-----10----------------------|-----7h8-----10----------------------13--|--
D|--0-------0--------------------------|--0-------0------------------------------|--

Stave 5:

E|--------------------------------|-----------------
B|--------------------------------|-----------------
G|--------------------------------|-----------------
D|--------------------------------|-----------------
A|--------------------------------|-----------1--3--
D|--0--2--3--5--3--2--3--5--7--5--|--3--5--7--------

Stave 6:

E|--------------------------------------|-----------------------|--
B|--------------------------------------|-----------------------|--
G|----------------7--------9------------|-----------------------|--
D|-----------7/8-----8/10-----10--8--7--|-----------------------|--
A|--------------------------------------|-----------------3-----|--
D|--0--0--0-----------------------------|--0--0--0-----0-----5--|--

http://www.guitartabcreator.com
Guitar Tab Creator is intended to store guitar tab created through the tool. It currently does not support in-line text editing. Any text you place in here will be lost. If you need to comment on your tab, please use the "Tab Notes" section located below.