Sound will begin in 5 seconds

Spacey Devy EC Idea 9.17.16

Chords
01234567891011121314151617181920212223
E
B
G
D
A
E
B
0 1 2 3 4 5 6 7 8 9 10 11 12 13 14 15 16 17 18 19 20 21 22 23
Song Science #1: How Pros Use 6 Chords to Write Hit Songs
(/) Slide Up  (\) Slide Down  (h) Hammer On  (p) Pull Off  (b) Bend (r) Release (v) Vibrato

Stave 1:

E|----------------------------------------------------------------|--
B|----------------------------------------------------------------|--
G|----------------------------------------------------------------|--
D|--12--12--------12--12--------------------12--12--12--12--------|--
A|--10--9---------10--9---------------------10--9---10--12--------|--
D|--0---0---0--0--0---0---0--0--0--0--0--0--0---0---0---0---0--0--|--

Stave 2:

E|-----------------------------------------------------|--
B|--0---------0-----------0---------------0------------|--
G|--9---------7-----------10--10--12--13--9------------|--
D|--10--------9-----------12--12--12--12--10-----------|--
A|--0---0--0--0--0--0--0--0---0---0---0---0---0--0--0--|--
D|-----------------------------------------------------|--

Stave 3:

E|-----------------------------------------------------|------------------------------------------|--
B|-----------------------------------------------------|------------------------------------------|--
G|-----------------------------------------------------|-----------------9--10--------------------|--
D|--12--12--------12--12--------------------12--12-----|--7--------------7--7---------------------|--
A|--10--9---------10--9---------------------10--9---5--|--7--------------7--7---------8--8--8-----|--
D|--0---0---0--0--0---0---0--0--0--0--0--0--0---0---0--|--7--7--7--7--7--7--7---7--7--7--7--7--0--|--

Stave 4:

E|--------------|-----|--------------|-----------------|-----------------|-----------------------
B|--------------|-----|--------------|-----------------|-----------------|-----------------------
G|--------5-----|--0--|--------5-----|--0--0-----------|-----------------|-----------------------
D|--3--3--3--3--|--2--|--3--3--3--3--|--2--2-----2-----|--5--5-----5-----|--3--3--3--------------
A|--3--3--3--3--|--3--|--3--3--3--3--|--3--3--0--3--0--|--5--5-----5-----|--3--3--3--------------
D|--3--3--3--3--|-----|--3--3--3--3--|-----------------|--5--5--0--5--0--|--3--3--3--2--2--3--3--

http://www.guitartabcreator.com
Guitar Tab Creator is intended to store guitar tab created through the tool. It currently does not support in-line text editing. Any text you place in here will be lost. If you need to comment on your tab, please use the "Tab Notes" section located below.