Sound will begin in 5 seconds

Pretty Fingerpicked EC Idea 2 9.21.16

Chords
01234567891011121314151617181920212223
E
B
G
D
A
E
B
0 1 2 3 4 5 6 7 8 9 10 11 12 13 14 15 16 17 18 19 20 21 22 23
Song Science #1: How Pros Use 6 Chords to Write Hit Songs
(/) Slide Up  (\) Slide Down  (h) Hammer On  (p) Pull Off  (b) Bend (r) Release (v) Vibrato

Stave 1:

E|-----------------------------------------------|--------------------------------------------|--
B|--5--------7-----8-----8--7--5-----------------|-----------------0--------------------------|--
G|-----0--------0--------0--0-----0-----7--7--7--|--7--6--5-----------5-----5--------5--------|--
D|--------0--------------------------0-----0--0--|-----------0-----------0-----0--------0-----|--
A|--7--------------------------------------------|--------3-----3-----------------3--------3--|--
D|-----------------------------0--------0--------|--0-----------------------------------------|--

Stave 2:

E|-----------------------------------|-----------------------------------------------------|--
B|-----------0-----------------------|-----------------------------------------------------|--
G|--4-----------4--4--------4--------|-----0-----------0-----------------0-----------0-----|--
D|-----0--------------0--------0-----|--------0-----------0-----------------0-----------0--|--
A|--2-----2--------------2--------2--|-----------5-----------5-----------------7-----------|--
D|-----------------------------------|--5-----------5-----------5--6--7-----------7--------|--

Stave 3:

E|----------------------------------------------------------------------------|--
B|----------------------------------------------------------------------------|--
G|--------0-----------0-----------0-----------0-------------------------------|--
D|-----7-----7-----7-----7-----7-----7-----7-----7--5--5--5-----5--5----------|--
A|--------------5-----------------------5-----------2--3--3-----2--3-----2h3--|--
D|--0-----------------------0-----------------------------------------0-------|--

http://www.guitartabcreator.com
Guitar Tab Creator is intended to store guitar tab created through the tool. It currently does not support in-line text editing. Any text you place in here will be lost. If you need to comment on your tab, please use the "Tab Notes" section located below.