Sound will begin in 5 seconds

8 String Bass EC Idea 10.7,16

Chords
01234567891011121314151617181920212223
E
B
G
D
A
E
B
0 1 2 3 4 5 6 7 8 9 10 11 12 13 14 15 16 17 18 19 20 21 22 23
Top Courses in Music 160x600
(/) Slide Up  (\) Slide Down  (h) Hammer On  (p) Pull Off  (b) Bend (r) Release (v) Vibrato

Stave 1:

G|-------------10-----14---------------------14h15--14--|--
D|---------12-------------15-------------12-------------|--
A|-----12---------------------15-----12-----------------|--
D|--0--------------0--------------0---------------------|--

Stave 2:

G|--12--12--12--12--14--12--|--10--10--10--10--15--14--|--
D|--0---0---0---0---0---0---|--0---0---0---0---0---0---|--
A|--------------------------|--------------------------|--
D|--------------------------|--------------------------|--

Stave 3:

G|--9--10--------------10--9--10--------------9--10--------------12--9--10--|--
D|--0--0---0--0--0--0--0---0--0---0--0--0--0--0--0---0--0--0--0--0---0--0---|--
A|--------------------------------------------------------------------------|--
D|--------------------------------------------------------------------------|--

Stave 4:

G|--9---10--------------10--9---10--------------9---10--------------12--9---10--|--
D|--10--10--10--10--10--10--10--10--10--10--10--10--10--10--10--10--10--10--10--|--
A|------------------------------------------------------------------------------|--
D|------------------------------------------------------------------------------|--

Stave 5:

G|--9--10--------------10--9--10--------------9--10--------------12--9--10--|--
D|--8--8---8--8--8--8--8---8--8---8--8--8--8--8--8---8--8--8--8--8---8--8---|--
A|--------------------------------------------------------------------------|--
D|--------------------------------------------------------------------------|--

Stave 6:

G|-----------------------------------12--9--10------|--
D|--7--7--7--7--7--7--7--7--7--7--7-------------10--|--
A|--0-----------------------------------------------|--
D|--------------------------------------------------|--

http://www.guitartabcreator.com
Guitar Tab Creator is intended to store guitar tab created through the tool. It currently does not support in-line text editing. Any text you place in here will be lost. If you need to comment on your tab, please use the "Tab Notes" section located below.