Sound will begin in 5 seconds

Joe Pass Lines

01234567891011121314151617181920212223
E
B
G
D
A
E
B
0 1 2 3 4 5 6 7 8 9 10 11 12 13 14 15 16 17 18 19 20 21 22 23
Song Science #1: How Pros Use 6 Chords to Write Hit Songs
(/) Slide Up  (\) Slide Down  (h) Hammer On  (p) Pull Off  (b) Bend (r) Release (v) Vibrato

Stave 1:

E|--------------3--7--10--8-----7----------------
B|--3--------5---------------8-----10--8---------
G|-----4--5-------------------------------10--9--
D|-----------------------------------------------
A|-----------------------------------------------
E|-----------------------------------------------

Stave 2:

E|--7--6--5--4--3--------------------------
B|-----------------5--3--------------------
G|-----------------------5--4--3--2--1--0--
D|-----------------------------------------
A|-----------------------------------------
E|-----------------------------------------

Stave 3:

E|----------------------3--7--10--
B|-----------3-------5------------
G|--------4-----4/5---------------
D|--2--5--------------------------
A|--------------------------------
E|--------------------------------

Stave 4:

E|-------------------------3--7--10--7--------
B|--------------3-------5---------------8-----
G|-----------4-----4h5---------------------9--
D|-----2--5-----------------------------------
A|--3-----------------------------------------
E|--------------------------------------------

Stave 5:

E|-----------------------------------------
B|--5--6--5--------------------------------
G|-----------7--5--2-----------------------
D|--------------------3-----5--------3--2--
A|-----------------------5--------3--------
E|-----------------------------3-----------

Stave 6:

E|--10--8--7---------------------------------------------
B|------------10--8---------------------8----------------
G|-------------------9--7------------7-----9----------9--
D|-------------------------10--9--7-----------7h9h10-----
A|-------------------------------------------------------
E|-------------------------------------------------------

Stave 7:

E|------------------------7--10--8--7-----------------------
B|---------------------8---------------10--9----------------
G|--------7---------9-------------------------10--7---------
D|--7--9-----9--10-----------------------------------9--10--
A|----------------------------------------------------------
E|----------------------------------------------------------

Stave 8:

E|-----------------------------------------
B|--5h6p5p3--------------------------------
G|-----------5--4--2-----------------------
D|--------------------5--3--2--------------
A|-----------------------------6--5--4--3--
E|-----------------------------------------

Stave 9:

E|------------------------------10------------
B|--------------------------12------12--8-----
G|---------7---------9--12-----------------9--
D|------7-----9--10---------------------------
A|--10----------------------------------------
E|--------------------------------------------

http://www.guitartabcreator.com
Guitar Tab Creator is intended to store guitar tab created through the tool. It currently does not support in-line text editing. Any text you place in here will be lost. If you need to comment on your tab, please use the "Tab Notes" section located below.