Sound will begin in 5 seconds

Junk

01234567891011121314151617181920212223
E
B
G
D
A
E
B
0 1 2 3 4 5 6 7 8 9 10 11 12 13 14 15 16 17 18 19 20 21 22 23
Song Science #1: How Pros Use 6 Chords to Write Hit Songs
(/) Slide Up  (\) Slide Down  (h) Hammer On  (p) Pull Off  (b) Bend (r) Release (v) Vibrato

Stave 1:

E|------------------------------------------------------------------------------------------------------------14--14--14--16--------------19--------------------------------------------
B|-------------------------6--6-----8-----10------12----------------------------------14--14----------14--14------------------18--18----------------------23--23------3--2--------------
G|--3-------------------8--------5------------10------11--11----------------------11----------14--------------------------------------19--------------22--------------------2-----------
D|-----4-------6--7--------------------9----------------------11--11--11--11--11------------------14------------------------------------------21------------------23-----------2-----3--
A|----------6--------7----------------------------------------------------------------------------------------------------------------------------22------------------------------3-----
E|--------5b----------------------------------------------------------------------------------------------------------------------------------------------------------------------------

Stave 2:

E|---------8---------------------------------------------------------------------------------
B|-------------------------------------------------------------------2--------------2--------
G|------------11--11--11---------8--8--8--8-----7--7--7--7--------------------------------4--
D|------8-----------------11-----------------7--------------6-----------------2--1-----4-----
A|--10------------------------9-----------------------------------3--------2-----------------
E|-------------------------------------------------------------5--------2--------------------

Stave 3:

E|--
B|--
G|--
D|--
A|--
E|--

Stave 4:

E|-----------------------
B|--------6--7--8--------
G|-----------------------
D|-----------------8-----
A|--4--6--------------8--
E|-----------------------

http://www.guitartabcreator.com
Guitar Tab Creator is intended to store guitar tab created through the tool. It currently does not support in-line text editing. Any text you place in here will be lost. If you need to comment on your tab, please use the "Tab Notes" section located below.