Sound will begin in 5 seconds

Artic Monkey - R U MINE?

Chords
01234567891011121314151617181920212223
E
B
G
D
A
E
B
0 1 2 3 4 5 6 7 8 9 10 11 12 13 14 15 16 17 18 19 20 21 22 23
Top Courses in Music 160x600
(/) Slide Up  (\) Slide Down  (h) Hammer On  (p) Pull Off  (b) Bend (r) Release (v) Vibrato

Stave 1:

E|------
B|------
G|------
D|------
A|------
E|--2v--

Stave 2:

E|-----------------------------------------------------------------
B|-----------------------------------------------------------------
G|-----------------------------------------------------------------
D|-----------------------------------------------------------------
A|---------------------------------5-----5--5--4--2-----2\14/2-----
E|--2--2-----2--2-----7h9-----7h9----------------------------------

Stave 3:

E|---------------------------------------------------------------
B|---------------------------------------------------------------
G|---------------------------------7-----7--7--6--4-----4--4-----
D|---------------------------------0-----0--0--0--0-----0--0--0--
A|---------------------------------5-----5--5--4--2-----2--2-----
E|--2--2-----2--2-----7h9-----7h9--------------------------------

Stave 4:

E|---------------------------------------------------------------------
B|---------------------------------------------------------------------
G|---------------------------------------------------------------------
D|------------------------------7--------------------------------------
A|-------------------------7h9-----9--7--5-----5--5--4--2-----2--2--0--
E|--2--------2--2-----7h9----------------------------------------------

Stave 5:

E|-------------------------------------------------------------------------
B|-------------------------------------------------------------------------
G|-------------------------------------------------------------------------
D|------------------------------7--9p7-------------------------------------
A|-------------------------7h9----------9p7--5-----5--5--4--2-----2--2--0--
E|--2--2-----2--2-----7h9--------------------------------------------------

Stave 6:

E|-----------------------------------------------
B|-----------------------------------------------
G|-----------------7-----7--7--6--4-----4--4-----
D|-----------------0-----0--0--0--0-----0--0--0--
A|-----------------5-----5--5--4--2-----2--2-----
E|--2-----2--2-----------------------------------

Stave 7:

E|--------------------------------------------------
B|--------------------------------------------------
G|--------------------7-----7--7--6--4-----4--4-----
D|--------------------0-----0--0--0--0-----0--0--0--
A|--------------------5-----5--5--4--2-----2--2-----
E|--2-----2--2-----2--------------------------------

Stave 8:

E|---------------------------------------------------------------------------------
B|---------------------------------------------------------------------------------
G|---------------------------------------------------------------------------------
D|---------------------------------------------------------------------------------
A|-------------------------7h9-------7h9-------5-----5--5--4--2--0-----------------
E|--2--2-----2--2-----7h9-------7h9-------7h9--------------------------2-----2--2--

Stave 9:

E|--------------------------------
B|--------------------------------
G|--------------------------------
D|--------------------------------
A|--5-----5--5--4--2-----2--2--0--
E|--------------------------------

Stave 10:

E|--------------------------------------------------------------------------------
B|--------------------------------------------------------------------------------
G|--------------------------------------------------------------------------------
D|--------------------------------------------------------------------------------
A|----------------------7h9--7--9p7--9p7--5-----5--5--4--2-----2--2--0--2\4--2h---
E|--2-----2--2-----7h9------------------------------------------------------------

Stave 11:

E|-----------
B|-----------
G|-----------
D|--------4--
A|--2--------
E|-----------

Stave 12:

E|--------------------------------------------------------------------------------------
B|--------------------------------------------------------------------------------------
G|--------------------------------------------------------------------------------------
D|--------------------------------------------------------------------------------------
A|--------------------------------------------------------------------------------------
E|--7-----7--7-----7--7-----7--7--9--10-----10--10-----10--10-----10--10-----9/2-----2--

Stave 13:

E|--------------------------------------------------------------------------------------------
B|--------------------------------------------------------------------------------------------
G|--------------------------------------------------------------------------------------------
D|--------------------------------------------------------------------------------------------
A|--------------------------------------------------------------------------------------------
E|--2--2-----2--2-----2--2-----4--5-----5--5-----5--5-----5--5-----5--7-----7--7-----7--7-----

Stave 14:

E|-----------------------------------
B|-----------------------------------
G|-----------------------------------
D|-----------------------------------
A|-----------------------------------
E|--7--7\9--9--10/9--9/7--7/5--5--0--

Stave 15:

E|------------------------------------------------------------
B|---------------------------------------7--10b12--10/5--5b7--
G|-----------------------------------6h9h---------------------
D|------------------------------7h9---------------------------
A|-------------------------7h9--------------------------------
E|--2--2-----2--2-----7h9-------------------------------------

Stave 16:

E|------------------------------------------------------------------------------
B|------------------------------------------------------------------------------
G|------------------------------------------------------------------------------
D|------------------------------------------------------------------------------
A|--------------------2r2r2r2r2r2-----5-----5--5--4--2--------------------------
E|--2--2-----2--2------------------------------------------------2--2-----2--2--

Stave 17:

E|---------------------------------------------------------------------
B|---------------------------------------------------------------------
G|---------------------------------------------------------------------
D|---------------------------------------------------------------------
A|----------------------7h9--9--7h9--9--5-----5--5--4--2--0--2/4--2/4--
E|--2-----2--2-----7h9-------------------------------------------------

http://www.guitartabcreator.com
Guitar Tab Creator is intended to store guitar tab created through the tool. It currently does not support in-line text editing. Any text you place in here will be lost. If you need to comment on your tab, please use the "Tab Notes" section located below.