Sound will begin in 5 seconds

The Wings of the Morning

Chords
01234567891011121314151617181920212223
E
B
G
D
A
E
B
0 1 2 3 4 5 6 7 8 9 10 11 12 13 14 15 16 17 18 19 20 21 22 23
Song Science #1: How Pros Use 6 Chords to Write Hit Songs
(/) Slide Up  (\) Slide Down  (h) Hammer On  (p) Pull Off  (b) Bend (r) Release (v) Vibrato

Stave 1:

E|--0--5--7-----7-----------------------------0-----5--------7--7-----------------------
B|-----------------------0--------0-----------------------0--------------0--------0-----
G|--------------------6-----6--------6-----------6--------6-----------7-----7--------7--
D|-----------------7-----------7--------6--------------6-----------5-----------5--------
A|-----------0-----------------------------0--------------------------------------------
E|--------------------------------------------------------------0-----------------------

Stave 2:

E|--------0-----5-----7-----9--10--9-----5--------0--5--7--7/9---10--7/9---7---------|--
B|--------------3-----5--------7---------7-----------7---------------------10--------|--
G|--6-----------4-----6-----9------9-----9-----------7-------10--------10--9---------|--
D|-----5--------5-----5-----0---------0----------------------0---------0-------------|--
A|--0--------0-----0-----0---------------------------0-------------------------------|--
E|-------------------------------------------------------------------------0---------|--

Stave 3:

E|--0-----5-----------7-----7-----------------------------0-----5--------7-----7--------------
B|--------------0--------------------0--------0-----------------------0--------8-----------8--
G|-----------7--------------------6-----6--------6-----------6--------6--------7--------7-----
D|-----7-----------6-----------7-----------7--------6--------------6-----------7-----7--------
A|-----------------------0-----------------------------0-----------------------7--7-----------
E|--------------------------------------------------------------------------0-----------------

Stave 4:

E|--------------------0-----5-----7-----9--10--9-----5--------0--5--7--12--10--7/9---7---|--
B|--------------4-----------3-----5--------7---------7-----------7-----10------------10--|--
G|-----7--------------6-----4-----6--6--9------9-----9-----------7-----10--------10--9---|--
D|--7-----7--------5--------5-----5-----0---------0--------------------0---------0-------|--
A|--------------0--------0-----0-----0---------------------------0-----------------------|--
E|-----------------------------------------------------------------------------------0---|--

Stave 5:

E|-----0-----5-----------7-----7-----------5-----------4-----------5-----------5-----3-----
B|-----------------0--------------------0--------0--------------0--------0-----------------
G|--------------7--------------------6--------------6--------6--------------6-----0-----0--
D|--------7-----------6-----------7-----------7-----------7-----------7--------------2-----
A|--------------------------0--------------------------0-----------------------------------
E|-----------------------------------------------------------------------------0-----------

Stave 6:

E|--2-----0-----------------------0-----------------0-----------2--------2--4--------4--
B|--0-----0-----0-----2-----3-----2-----3--------3--------5-----------3-----------5-----
G|-----0-----0--0--0--2-----4-----3--3--2-----2--------------------2-----------4--------
D|--------------0-----4-----5-----5-----4--4-----------6-----0--0-----------0-----------
A|-----------------------0-----0--------0-----------------------------------------------
E|--------------0-----------------------------------------------------------------------

Stave 7:

E|--1--------1--3--------3--5--------5--7-----------7--|-----7---------------------7--7--
B|--------3-----5-----5-----6-----6-----10------10-----|-----------------10--------------
G|-----2--------5--5--------7--7--------10--10---------|-----------9------------9--------
D|--0-----------0--------------------------------------|--------7-----7------7-----------
A|-----------------------------------------------------|--0---------------------------0--
E|--------------------------0--------------------------|---------------------------------

Stave 8:

E|-----------------------7---------7------7---------------3-----7-----7/9--|--
B|-----------9--------9--------------------------8-----2-----4--5--5----8--|--
G|-----9-----------9--------7---------7v------------------4-----6-------9--|--
D|--7-----7-----7--------------7v------------7v-------------------------7--|--
A|-----------------------0--------------------------0----------------------|--
E|-------------------------------------------------------------------------|--

Stave 9:

E|--------------0-----------2--------2--4--------4--1--------1--3--------3--5--------5--
B|--3--------3--------------------3-----------5--------3-----------5-----------6--------
G|--2-----2-----------5--------2-----------4--------------2-----------5-----------7-----
D|--4--4-----------6-----0--0-----------0-----------0-----------------------0-----------
A|--0-----------------------------------------------------------------------------------
E|--------------------------------------------------------------------------------------

Stave 10:

E|--7--------7--5--------5--7--------7--8----------8--10----------10--12--------------12p0--
B|-----8-----------6-----------8---------------10-------------12----------------------------
G|--------9-----------7-----------9--------10-------------12------------------11------------
D|--------------0---------------------------------------------------------12------12--------
A|--------------------------------------0---------------------------------------------------
E|----------------------------------------------------0---------------0---------------------

Stave 11:

E|----------0--12-------------12p0---------0-----0-----0-----0-----0-----0-----0-----0--
B|--------------------------------------------------------------------------------------
G|------11-------------9----------------9-----7-----6-----4-----2-----1-----1-----2-----
D|--12-------------11-----11--------11--------9-----7-----6-----4-----2-----0-----------
A|--------------------------------------------------------------------------------3-----
E|-------------0------------------------------------------------------------------------

Stave 12:

E|-----0--------------------------------------------------------------------------------
B|-----0-----1--------0--1--3--1--0--------------0--1--3--1--0-----------------0-----1--
G|--1--------2-----2--------------------------2-----------------2-----------2--------2--
D|-----------2--2-----------2--------2-----2-----------2-----------------3-----------3--
A|--2--------0--------------------------------------------------------3-----------------
E|--------------------------------------3--------------------------1--------------1-----

Stave 13:

E|-----------------------------------------------------------------------------------------
B|--0--1--0--1--0-----1--------0--1--3--1--0-----0--------0--1--3--1--0-----------------0--
G|--2--2--2--2--1-----2-----2--------------------------2-----------------2-----------2-----
D|--3--3--3--3--2-----2--2-----------2--------2-----2-----------2-----------------3--------
A|--------------------0--------------------------------------------------------3-----------
E|-----------------------------------------------3--------------------------1--------------

Stave 14:

E|-----------------------------------------------------------------------------------------
B|--1--0--1--3--1--0-----1--------0--1--3--1--0-----0--------0--1--3--1--0-----------1--3--
G|--2--2--2--4--2--1-----2-----2--------------------------2-----------------2--------2--2--
D|--3--3--3--5--3--2-----2--2-----------2--------2-----2-----------2--------------3--------
A|-----------------------0-----------------------------------------------------------------
E|--1--------------0--------------------------------3--------------------------1-----------

Stave 15:

E|--0--1--3--5--7--8---7--5-----------------------------------------------------------------
B|--1--1-----6-----10--5--5--------0--1--3--1--0-----0--------0--1--3--1--0--------------0--
G|--2--2-----7-----9---7--5-----2--------------------------2-----------------2--------2-----
D|---------------------6--7--2-----------2--------2-----2-----------2--------------3--------
A|------------------------7-----------------------------------------------------------------
E|-----------------0------5--------------------------3--------------------------1-----------

Stave 16:

E|-------------------0--1--3--1--0--------------------------------------------------------------
B|--1p0-----0--1--3-----------------3--1--0-----------------------------------------------------
G|-------2-----------------------------------2--0--4--2--0--------------------------------------
D|----------------------------------------------------------3--2--0--------0--------------------
A|-------------------------------------------------------------------3--2-----3--2--0-----------
E|-------------------------------------------------------------------------------------3--1--0--

Stave 17:

E|--------0-----------------0-----------------------0-----------------------0-------------12v--7v--5v--
B|-----0-----0--------3-----------3--------------1--------1--------------0-----------12v---------------
G|--1-----------1--------2-----2-----2--------2--------------2--------1-----------1--------------------
D|-----------------0-----------------------2-----------2-----------2-----------2-----------------------
A|--------------------------------------3-----------------------2--------------------------------------
E|-----------------------------------------------------------------------------------------------------

Stave 18:

E|--0--5--7-----7-----------------------------0-----5--------7/9--9/7-----------------------------
B|-----------------------0--------0-----------------------0---------8-----------8-----------------
G|--------------------6-----6--------6-----------6--------6---------7--------7--------7--------0--
D|-----------------7-----------7--------6--------------6------------------7--------7-----7--------
A|-----------0-----------------------------0---------------------------7--------------------0-----
E|------------------------------------------------------------------0-----------------------------

Stave 19:

E|--0-----5-----7-----9--10--9-----5-----0--5--7-----10/12--10--9---7--|-------------------9------9p7--
B|--3-----3-----5--------7---------7--------7-----------10--10--10--7--|-------------------------------
G|--4-----4-----6-----9------9-----9--------7-----------10--10--7---7--|-----7------7---------7v-------
D|--5-----5-----5-----0---------0-----------------------10--10------7--|---------------7v--------------
A|-----0-----0-----0------------------------0-------------------8---7--|--------7v---------------------
E|------------------------------------------------------------------0--|--0----------------------------

Stave 20:

E|------------------9p7---------------------9p7---------------------9p7---------------------9p7--
B|------9p7------7--------------9p7------7--------------9p7------7--------------9p7------7-------
G|-----------7v--------------7-------7v--------------7-------7v--------------7-------7v----------
D|--7v-------------------7v----------------------7v----------------------7v----------------------
A|-----------------------------------------------------------------------------------------------
E|-----------------------------------------------------------------------------------------------

Stave 21:

E|------------------------------|--0-----5-----------7-----7-----------------------------
B|---------9p7------------------|--------------0--------------------0--------0-----------
G|------7--------------7--------|-----------7--------------------6-----6--------6--------
D|--7v--------------9-----7-----|-----7-----------6-----------7-----------7--------6-----
A|--------------7v--------------|-----------------------0-----------------------------0--
E|---------------------------0--|--------------------------------------------------------

Stave 22:

E|--------0-----5-----------7/9--5/7--------7\5--------------0-----5-----7-----9---10--9------5--
B|--------------------0---------------8----------8-----4-----------3-----5-----10--10--10-----7--
G|-----------6--------6------------------7----------7--------6-----4-----6--6--9---11--9------9--
D|--6--------------6--------------------------------------5--------5-----5-----0-----------0-----
A|-----0-----------------------------------------------0--------0-----0--------------------------
E|-----------------------0-----------------------------------------------------------------------

Stave 23:

E|--0--5--7--------12--10--7/9---7---|--0-----5-----------7-----7--------------------0-----------0--
B|-----7--7--------10------------10--|--------------0--------------------0--------0-----------0-----
G|-----7--7--7/10--10--------10--9---|-----------7--------------------6-----6--------------6--------
D|--0--------------0---------0-------|-----7-----------6-----------7-----------7--------6-----------
A|-----0-----------------------------|-----------------------0--------------------------------------
E|-------------------------------0---|--------------------------------------------------------------

Stave 24:

E|-----------0-----------0-----------0-----------0--------0-----------0-----1-----3-----5--|--
B|--------0-----------0-----------0-----------0--------0--------3--------2--------1-----6--|--
G|-----6-----------4-----------4-----------4-----------------------2-----------2-----0--7--|--
D|--4-----------5-----------4-----------2-----------0--------2--3-----2-----0--------------|--
A|--------------------------------------------------------------------------------3--------|--
E|--------------------------------------------------------------------------------------7--|--

Stave 25:

E|--0-----5--------7-----7-----------------------------0-----5--------7--7-----------------------
B|--------------0--0--------------0--------0-----------------------0--------------0--------0-----
G|--------------7--7-----------6-----6--------6-----------6--------6-----------7-----7--------7--
D|-----------7-----6--------7-----------7--------6--------------6-----------5-----------5--------
A|--------------------0-----------------------------0--------------------------------------------
E|-----0-----------------------------------------------------------------0-----------------------

Stave 26:

E|-----0--5--7-----7-----|-----5--5--5-----5--5--5-----5--5--5-----5--5--5-----5--5--5-----5--5--5--
B|-----------------------|--------------------------5-----------------------------------------------
G|-----------------------|--------------7-----------------------7-----------------------------------
D|--6--------------------|--4-----------------------------------------------------------4-----------
A|--------------0--------|--------------------------------------------------0-----------------------
E|--0--------------------|--------------------------------------------------------------------------

Stave 27:

E|-----5--5--5-----5--5--5-----7--7--7-----7--7--7-----7--7--7-----7--7--7-----7--7--7-----7--7--7--
B|--5-----------------------------------------------7-----------------------------------------------
G|--------------7-----------------------------------------------9-----------------------9-----------
D|--------------------------------------6-----------------------------------6-----------------------
A|--------------------------------------------------------------------------------------------------
E|--------------------------0-----------------------------------------------------------------------

Stave 28:

E|-----7--7--7-----7--7--7-----8--8--8------8--8--8-----8--8--8------8--8--8-----8--8--8--
B|--7------------------------------------------------8------------------------------------
G|--------------------------------------10-----------------------10-----------------------
D|--------------6-------------------------------------------------------------7-----------
A|--------------------------0-------------------------------------------------------------
E|----------------------------------------------------------------------------------------

Stave 29:

E|------8--8--8-----8--8--8------8--8--8-----10--10--10-----10--10--10------10--10--10--
B|---------------8----------------------------------------------------------------------
G|--10-----------------------10-----------------------------------------12--------------
D|-------------------------------------------------------9------------------------------
A|--------------------------------------------------------------------------------------
E|----------------------------------------0---------------------------------------------

Stave 30:

E|------10--10--10------10--10--10-----10--10--10------10--10--10------10--10--10--
B|--10-------------------------------------------------------------10--------------
G|------------------12-----------------------------12------------------------------
D|----------------------------------9----------------------------------------------
A|---------------------------------------------------------------------------------
E|---------------------------------------------------------------------------------

Stave 31:

E|--------12--12--12------12--12--12------12--12--12------12--12--12-----12--12--12--
B|------------------------------------12---------------------------------------------
G|--------------------14------------------------------14-----------------------------
D|--------------------------------------------------------------------9--------------
A|-----0-----------------------------------------------------------------------------
E|--0--------------------------------------------------------------------------------

Stave 32:

E|------12--12--12------12--12--12------12--12--12-----12v-----------0--------|--
B|------------------12-----------------------------------------------0--------|--
G|--14------------------------------14-------------------------------2--------|--
D|-------------------------------------------------------------------2--------|--
A|-------------------------------------------------------------------0--------|--
E|-------------------------------------------------------------0--------------|--

http://www.guitartabcreator.com
Guitar Tab Creator is intended to store guitar tab created through the tool. It currently does not support in-line text editing. Any text you place in here will be lost. If you need to comment on your tab, please use the "Tab Notes" section located below.