Sound will begin in 5 seconds

Moon Represents the Heart Ukulele Tutorial by Alex Xue

Chords
01234567891011121314151617181920212223
E
B
G
D
A
E
B
0 1 2 3 4 5 6 7 8 9 10 11 12 13 14 15 16 17 18 19 20 21 22 23
Top Courses in Music 160x600
(/) Slide Up  (\) Slide Down  (h) Hammer On  (p) Pull Off  (b) Bend (r) Release (v) Vibrato

Stave 1:

A|--0--------0--5--5-----2--------2--5--5--7--------9--10--7h5--5-----------5--0p2--2-----------2--
E|--2-----3-----------3--2-----2-----------0-----0--------------3-----3-------------3-----3--------
C|--2--2-----------------2--2--------------0--0-----------------2--2-----2----------4--4-----4-----
G|--2--------------------2-----------------0--------------------0-------------------0--------------

Stave 2:

A|--0p2--2-----------2-----2--0--------------0h2--0--------0--1--
E|-------3-----3--------------0--------0--0-------2-----2-----2--
C|-------4--4-----4-----------0-----0-------------2--2--------0--
G|-------0--------------1-----0--0----------------0-----------0--

Stave 3:

A|--0--------0--5--5-----2--------2--5--5--7--------9--10--7h5--5-----------5--0p2--2-----------2--
E|--2-----3-----------3--2-----2-----------0-----0--------------3-----3-------------3-----3--------
C|--2--2-----------------2--2--------------0--0-----------------2--2-----2----------4--4-----4-----
G|--2--------------------2-----------------0--------------------0-------------------0--------------

Stave 4:

A|--0p2--2-----------2-----2--0-----------------0--2-----------2--2h5--2--------0--------5--2-----------
E|-------3-----3--------------0--------0--2--3-----3-----3-------------3-----3--------3-----2--------2--
C|-------4--4-----4-----------0-----0--------------2--2-----2----------2--2-----------------2-----2-----
G|-------0--------------1-----0--0-----------------0-------------------0-----------0--------2--2--------

Stave 5:

A|--2----------------------------2-----------2--2--2h5--2--------0--------5--
E|-----0--0h2--3--3--3--2--3-----3-----3--------3-------3-----3--------3-----
C|----------------------------2--2--2-----2-----2-------2--2-----------------
G|-------------------------------0--------------0-------0-----------0--------

Stave 6:

A|--2-----------2-----------------------2--0--
E|--2--------2-----2--2--3--3--3--2--3-----2--
C|--2-----2--------------------------------0--
G|--2--2-----------------------------------2--

Stave 7:

A|--0--------0--5--5-----2--------2--5--5--7--------9--10--7h5--5-----------5--0p2--2-----------2--
E|--2-----3-----------3--2-----2-----------0-----0--------------3-----3-------------3-----3--------
C|--2--2-----------------2--2--------------0--0-----------------2--2-----2----------4--4-----4-----
G|--2--------------------2-----------------0--------------------0-------------------0--------------

Stave 8:

A|--0h2--2-----------2-----2--0----------------0p2--3--------10--
E|-------3-----3-----3--------0--------0--0h2-------3--3-----7---
C|-------2--2-----2--1--------0-----0---------------3-----3--7---
G|-------0-----------0--1-----0--0------------------3--------7---

http://www.guitartabcreator.com
Guitar Tab Creator is intended to store guitar tab created through the tool. It currently does not support in-line text editing. Any text you place in here will be lost. If you need to comment on your tab, please use the "Tab Notes" section located below.