Sound will begin in 5 seconds

FADING TO DARKNESS

Chords
01234567891011121314151617181920212223
E
B
G
D
A
E
B
0 1 2 3 4 5 6 7 8 9 10 11 12 13 14 15 16 17 18 19 20 21 22 23
Song Science #1: How Pros Use 6 Chords to Write Hit Songs
(/) Slide Up  (\) Slide Down  (h) Hammer On  (p) Pull Off  (b) Bend (r) Release (v) Vibrato

Stave 1:

D|------------------------------------------------------------------------------------
A|------------------------------------------------------------------------------------
F|------------------------------------------------------------------------------------
C|------------------------------------------------------------------------------------
G|--------6-----7p6-----4-----6-----7p6-----4h6--------6-----7p6-------4-------4------
D|--4--4-----4-------4-----4-----4-------4-------4--4-----4-------4--7b---4--7b---4v--

Stave 2:

D|----------------------------------------------
A|----------------------------------------------
F|----------------------------------------------
C|----------------------------------------------
G|--------11p7-----9p6-----7p4-----6p2-----2/4--
D|--0--0--------0-------0-------0-------0-------

Stave 3:

D|--------------------------------------------------------------------------------
A|--------------------------------------------------------------------------------
F|--------------------------------------------------------------------------------
C|--------------------------------------------------------------------------------
G|--------6-----7p6-----4-----6-----7p6-----4h6--------6-----7p6-----6--8--9--11--
D|--4--4-----4-------4-----4-----4-------4-------4--4-----4-------4--4--6--7--9---

Stave 4:

D|--------------------------------------------------
A|--------------------------------------------------
F|--------------------------------------------------
C|--------6-----6--8--------8-----8-----8--9--8--6--
G|--------------------------------------------------
D|--4--4-----4--------4--4-----4-----4--------------

Stave 5:

D|------------------------------------------------------------------------------------------
A|------------------------------------------------------------------------------------------
F|------------------------------------------------------------------------------------------
C|------------------------------8-----9p6--6h8------------------------11--9--8--9--8--6--9--
G|--------7-----9p6--6h7------------------------------7-----9p6--6h7------------------------
D|--0--0-----0------------0--0-----0------------0--0-----0----------------------------------

Stave 6:

D|-----------------------
A|-----------------------
F|-----------------------
C|--11--9--8--9--8--6----
G|-----------------------
D|---------------------9b

Stave 7:

D|-----------------------------------------------------7--7--7--7--7-----------------------------7--7--7--
A|-----------------------------------------------------7--7--7--7--7--------7--7--7--7--7--------7--7--7--
F|--------------------------------------------------------------------------7--7--7--7--7-----------------
C|--------------------------------------------------------------------------------------------------------
G|--6--6-----6--6-----6--6-----4--4-----9--9-----6--6-----------------6--6-----------------6--6-----------
D|--4--4-----4--4-----4--4-----2--2-----7--7-----4--4-----------------4--4-----------------4--4-----------

Stave 8:

D|--7--7-----------------
A|--7--7-----------------
F|-----------------------
C|-----------------------
G|-----------4--4--9--9--
D|-----------2--2--7--7--

http://www.guitartabcreator.com
Guitar Tab Creator is intended to store guitar tab created through the tool. It currently does not support in-line text editing. Any text you place in here will be lost. If you need to comment on your tab, please use the "Tab Notes" section located below.