Sound will begin in 5 seconds

Karen's Song

Chords
01234567891011121314151617181920212223
E
B
G
D
A
E
B
0 1 2 3 4 5 6 7 8 9 10 11 12 13 14 15 16 17 18 19 20 21 22 23
Song Science #1: How Pros Use 6 Chords to Write Hit Songs
(/) Slide Up  (\) Slide Down  (h) Hammer On  (p) Pull Off  (b) Bend (r) Release (v) Vibrato

Capo Fret 3

Stave 1:

E|----------5--------5-------------5--------5----------5--------5--
B|----------------5----------------------5--5----------------5-----
G|--2/7--6-----6--------6--2\7--6-----6-----6--2\7--6-----6--------
D|----------0----------------------0--------0----------0-----------
A|-----------------------------------------------------------------
E|-----------------------------------------------------------------

Stave 2:

E|--2--0--2--0-----
B|--2--0--2--0-----
G|--2--0--2--0-----
D|-----------------
A|--0--0--0--0-----
E|-----------------

Stave 3:

E|-------------------------------------------------------------------2------------------------------------
B|----------5----------3--------3----------------5----------3-----------5----------5----------3--------3--
G|--4/6--6-----6\4--4--------4--------4--4/6--6-----6\4--4--------4--------4/6--6-----6\4--4--------4-----
D|------------------------5--------5---------------------------5---------------------------------5--------
A|--0------------------0-----------------0------------------0--------0-----0------------------0-----------
E|--------------------------------------------------------------------------------------------------------

Stave 4:

E|--2--4--------------------2--4-----------------------2--4--------------------
B|--3--5--5--------5--------3--5--5--------5--------5--3--5--5--------5--------
G|--4--6--------6--------6--4--6--------6--------6--6--4--6--------6--------6--
D|--0--0-----7--------7-----0--0-----7--------7-----7--0--0-----7--------7-----
A|--------0-----------------------0-----------------0--------0-----------------
E|-----------------------------------------------------------------------------

Stave 5:

E|-----------------------------------------------------------------------------------------------------
B|--1--------1--------3--------3--------5--------5--------1--------1--------3--------3--------5--------
G|--2-----2--------2--4-----4--------4--6-----6--------6--2-----2--------2--4-----4--------4--6-----6--
D|-----3--------3--------5--------5--------7--------7--------3--------3--------5--------5--------7-----
A|--0-----------------0-----------------0-----------------0-----------------0-----------------0--------
E|-----------------------------------------------------------------------------------------------------

Stave 6:

E|-----------------------
B|--5--------------------
G|--------6-----6-----6--
D|-----7-----7-----7-----
A|-----------------------
E|-----------------------

Stave 7:

E|-------------------------------------------------------------------------------------------------
B|--2--------2--------0--------3--------2--------2--------7--5--3/5--2--------2--------0--------0--
G|--2-----2--------2--------4--------4--2-----2--------2--6--6--4-6--2-----2--------2--------4-----
D|-----2--------2--------5--------5--------2--------2-------------------2--------2--------5--------
A|--0-----------------0-----------------0-----------------0--0--0----0-----------------0-----------
E|-------------------------------------------------------------------------------------------------

Stave 8:

E|--------------------------------
B|--------------------------------
G|-----4--2--------2--------2-----
D|--5-----------0--------0--2-----
A|-----------0--------0-----0-----
E|--------2-----------------0-----

Stave 9:

E|-------------------
B|-------------------
G|--0h2/4/6\4--------
D|-------------2--4--
A|--0----------------
E|-------------------

Stave 10:

E|--4--------4--------------------------------------------------------------4--------4--------2--------2--
B|--------5--------5--5--------5--------0--------0--------5--------5--------------5--------5--------3-----
G|-----6--------6-----------6--------6--------6--------6--------6--------6-----4--------4--------2--------
D|--0--------------------4--------4--------4--------4--------4--------4-----0-----------------0-----------
A|--------------------0-----------------5-----------------0-----------------------------------------------
E|--------------------------------------------------------------------------------------------------------

Stave 11:

E|-----------------------------------------------
B|-----3--3--------3--------0--------0--------2--
G|--2-----------2--------2--------2--------2--2--
D|-----------3--------3--------3--------3-----2--
A|--------0-----------------0-----------------0--
E|-----------------------------------------------

http://www.guitartabcreator.com
Guitar Tab Creator is intended to store guitar tab created through the tool. It currently does not support in-line text editing. Any text you place in here will be lost. If you need to comment on your tab, please use the "Tab Notes" section located below.