Sound will begin in 5 seconds

Like a Rolling Stone

Chords
01234567891011121314151617181920212223
E
B
G
D
A
E
B
0 1 2 3 4 5 6 7 8 9 10 11 12 13 14 15 16 17 18 19 20 21 22 23
Top Courses in Music 160x600
(/) Slide Up  (\) Slide Down  (h) Hammer On  (p) Pull Off  (b) Bend (r) Release (v) Vibrato

Stave 1:

Eb|-------------------1-----3---------------------------------------------------1-----5p3--
Bb|-------------------1-----3---------------------------------------------------1-----3----
Gb|-------------5-----2-----4h5p4------------------------------7b9--7--5--------2-----4----
Db|-------------5-----3------------5-----5------------------5-------------7-----3-----5----
Ab|-------3-----3--------------------------------3-----5/7---------------------------------
Eb|--3h5-----5-----1-----3------------3-----3h5-----5------------------------1-----3-------

Stave 2:

Eb|------------10-------------10---------10----------------10-------------10------
Bb|--------10----------10h12------10h12------10--------10----------10h12------10--
Gb|--9/12----------12----------------------------9/12----------12-----------------
Db|-------------------------------------------------------------------------------
Ab|-------------------------------------------------------------------------------
Eb|-------------------------------------------------------------------------------

Stave 3:

Eb|---------------------------------------1---------3h5p3-----------------------------
Bb|-----5-------6h8p6----------8h10p8-----1---------3------3----3-----------3------3--
Gb|-----5-------5------5-------7-------7--2h3p2-----4------4h5--5p4h5p4--4--2h4p2--2--
Db|-----5-------7------7-------9-------9--3------3--5--------------------5---------5--
Ab|--3--3--3/5--5---------5/7--7------------------------------------------------------
Eb|---------------------------------------1---------3---------------------------------

Stave 4:

Eb|-----------
Bb|-----------
Gb|-----------
Db|-----------
Ab|-----------
Eb|-----------

http://www.guitartabcreator.com
Guitar Tab Creator is intended to store guitar tab created through the tool. It currently does not support in-line text editing. Any text you place in here will be lost. If you need to comment on your tab, please use the "Tab Notes" section located below.