Sound will begin in 5 seconds

yep for now

01234567891011121314151617181920212223
E
B
G
D
A
E
B
0 1 2 3 4 5 6 7 8 9 10 11 12 13 14 15 16 17 18 19 20 21 22 23
Top Courses in Music 160x600
(/) Slide Up  (\) Slide Down  (h) Hammer On  (p) Pull Off  (b) Bend (r) Release (v) Vibrato

Stave 1:

E|-----------------------------------------------------
B|-----0--1-----0--1-----/3--13--12--8--10--5--7/8--7--
G|-----------------------------------------------------
D|-----------------------------------------------------
A|--0--------3-----------------------------------------
E|-----------------------------------------------------

Stave 2:

E|-------------------------------
B|-----0--0--1-----1--1--3h0--0--
G|-------------------------------
D|-------------------------------
A|--0-----------3----------------
E|-------------------------------

Stave 3:

E|---------------------------------------
B|---------------------------------------
G|-----0--0--2--2--4--5--5--5p4--4--4p2--
D|---------------------------------------
A|---------------------------------------
E|--0------------------------------------

Stave 4:

E|------------------------------------
B|-----0--0--1-----0--0--1--1/3p1--1--
G|------------------------------------
D|------------------------------------
A|--0-----------3---------------------
E|------------------------------------

Stave 5:

E|----------------------------------------------
B|----------------------------------------------
G|----------------------------------------------
D|--7--9/10\9--12--10\9--7--9--5--7--3--5-------
A|-----------------------------------------3\2--
E|----------------------------------------------

Stave 6:

E|-------------------------------------------------
B|--------------------2--5-------------------------
G|-----------------2--------5\4--------------------
D|--------------2----------------5--0--3--5/6\5p0--
A|--2/3--------------------------------------------
E|-------3\2p0-------------------------------------

http://www.guitartabcreator.com
Guitar Tab Creator is intended to store guitar tab created through the tool. It currently does not support in-line text editing. Any text you place in here will be lost. If you need to comment on your tab, please use the "Tab Notes" section located below.