Sound will begin in 5 seconds

Syd Matters - Obstacles (unfinished)

01234567891011121314151617181920212223
E
B
G
D
A
E
B
0 1 2 3 4 5 6 7 8 9 10 11 12 13 14 15 16 17 18 19 20 21 22 23
Song Science #1: How Pros Use 6 Chords to Write Hit Songs
(/) Slide Up  (\) Slide Down  (h) Hammer On  (p) Pull Off  (b) Bend (r) Release (v) Vibrato

Stave 1:

E|----------------------------------------------------------------------------
B|----------------------------------------------------------------------------
G|--6--6-----8/10--8--6--10--10--6-----8/10--8--6--6-----8/10--8--6--6--------
D|----------------------------------------------------------------------------
A|----------------------------------------------------------------------------
E|----------------------------------------------------------------------------

Stave 2:

E|----------------------------------------------------------------------------
B|----------------------------------------------------------------------------
G|--6--6-----8/10--8--6--10--10--6-----8/10--8--6--6-----8/10--8--6--6--------
D|----------------------------------------------------------------------------
A|----------------------------------------------------------------------------
E|----------------------------------------------------------------------------

Stave 3:

E|---------------------------------------------------------------------------
B|---------------------------------------------------------------------------
G|--4/6--6-----8/10--8--6--10--10--6-----8/10--8--6-----8/10--8--6--6--------
D|---------------------------------------------------------------------------
A|---------------------------------------------------------------------------
E|---------------------------------------------------------------------------

Stave 4:

E|--------------------------------------------------------------------------------
B|-----------------------------------------------------------------------6--8/11--
G|---------8--10--8------8--8-----10/12--12--10\8-----10--8--5--8--5--8-----------
D|--8--10------------10-----------------------------------------------------------
A|--------------------------------------------------------------------------------
E|--------------------------------------------------------------------------------

Stave 5:

E|--------------------------------------------------------------------------------------------
B|--13--11------11--13--------13--11------11--13--11------11------11------13--11------11------
G|----------12------------------------12--------------12------12------12----------12------12--
D|--------------------------------------------------------------------------------------------
A|--------------------------------------------------------------------------------------------
E|--------------------------------------------------------------------------------------------

Stave 6:

E|-------------
B|-------------
G|--10--8--10--
D|-------------
A|-------------
E|-------------

http://www.guitartabcreator.com
Guitar Tab Creator is intended to store guitar tab created through the tool. It currently does not support in-line text editing. Any text you place in here will be lost. If you need to comment on your tab, please use the "Tab Notes" section located below.