Sound will begin in 5 seconds

Tara Perdida - Lisboa

01234567891011121314151617181920212223
E
B
G
D
A
E
B
0 1 2 3 4 5 6 7 8 9 10 11 12 13 14 15 16 17 18 19 20 21 22 23
Top Courses in Music 160x600
(/) Slide Up  (\) Slide Down  (h) Hammer On  (p) Pull Off  (b) Bend (r) Release (v) Vibrato

Stave 1:

E|--12-----12--12--10-----12--10-------------------------------------------
B|--------------------------------12------------10--12--10-------------10--
G|---------------------------------------9--12--------------12--9--12------
D|-------------------------------------------------------------------------
A|-------------------------------------------------------------------------
E|-------------------------------------------------------------------------

Stave 2:

E|--12-----12--12--15--14--15--14---------------------------------------------------------------------
B|---------------------------------15-----15--15--15--13--12--13--12--10------------------------------
G|------------------------------------------------------------------------12--11--12--11--12--11------
D|------------------------------------------------------------------------------------------------10--
A|----------------------------------------------------------------------------------------------------
E|----------------------------------------------------------------------------------------------------

Stave 3:

E|-----------------------------------------------------------------------------------
B|---------------------------------10----------12--10------12--10--------------------
G|--11--12--12--11---------11--12------12--11----------12----------12--12--11--9--9--
D|------------------12---------------------------------------------------------------
A|-----------------------------------------------------------------------------------
E|-----------------------------------------------------------------------------------

Stave 4:

E|--------------------------------------------------------------------------------------15--14------15--14--17--
B|----------10--------------------------------------10----------12--10------12--10--------------12--------------
G|--11--12------12--11------11--12--11------11--12------12--11----------12----------12--------------------------
D|----------------------10--------------12----------------------------------------------------------------------
A|--------------------------------------------------------------------------------------------------------------
E|--------------------------------------------------------------------------------------------------------------

Stave 5:

E|--12--10--12--10--12--10--12-----12--10--12--10--12--10--12--
B|-------------------------------------------------------------
G|-------------------------------------------------------------
D|-------------------------------------------------------------
A|-------------------------------------------------------------
E|-------------------------------------------------------------

Stave 6:

E|----------------------------------------------------------------------------------------
B|--12--10----------12--10----------12--10----------12--10----------12--10-------------8--
G|----------12--10----------12--10----------12--10----------12--10----------12--10--------
D|----------------------------------------------------------------------------------------
A|----------------------------------------------------------------------------------------
E|----------------------------------------------------------------------------------------

http://www.guitartabcreator.com
Guitar Tab Creator is intended to store guitar tab created through the tool. It currently does not support in-line text editing. Any text you place in here will be lost. If you need to comment on your tab, please use the "Tab Notes" section located below.