Sound will begin in 5 seconds

Primeira

Chords
01234567891011121314151617181920212223
E
B
G
D
A
E
B
0 1 2 3 4 5 6 7 8 9 10 11 12 13 14 15 16 17 18 19 20 21 22 23
Song Science #1: How Pros Use 6 Chords to Write Hit Songs
(/) Slide Up  (\) Slide Down  (h) Hammer On  (p) Pull Off  (b) Bend (r) Release (v) Vibrato

Stave 1:

E|---------------------------------------------------------------------------------------------------
B|---------------------------------------------------------------------------------------------------
G|---------------------------------------------------------------------------------------------------
D|------------7--10------------------7--10------------------7--10------------------7--10-----12--10--
A|--7--9--10---------------7--9--10---------------7--9--10---------------7--9--10--------------------
E|---------------------------------------------------------------------------------------------------

Stave 2:

E|-----------------------------------------------10---------------------------------------
B|------------------------------------10\12--12------12v-----12r10--10--------------------
G|--9v-----11--12--9v-----12--14--12------------------------------------11--12--9v--------
D|----------------------------------------------------------------------------------------
A|----------------------------------------------------------------------------------------
E|----------------------------------------------------------------------------------------

Stave 3:

E|--------------10-----12--10-----10--10-----10--10-----10------------------
B|------10------10h12------10h12------10h12------10h12------12--10------10--
G|--12------12------------------------------------------------------12------
D|--------------------------------------------------------------------------
A|--------------------------------------------------------------------------
E|--------------------------------------------------------------------------

Stave 4:

E|--10-----10--10-----10--12--12--12--12--12-10------10\8-----8--
B|--10h12------10h12------12--------------12\10--10-----8--8--8--
G|---------------------------------------------------------------
D|---------------------------------------------------------------
A|---------------------------------------------------------------
E|---------------------------------------------------------------

http://www.guitartabcreator.com
Guitar Tab Creator is intended to store guitar tab created through the tool. It currently does not support in-line text editing. Any text you place in here will be lost. If you need to comment on your tab, please use the "Tab Notes" section located below.