Sound will begin in 5 seconds

Place of Arms Solo

Chords
01234567891011121314151617181920212223
E
B
G
D
A
E
B
0 1 2 3 4 5 6 7 8 9 10 11 12 13 14 15 16 17 18 19 20 21 22 23
Song Science #1: How Pros Use 6 Chords to Write Hit Songs
(/) Slide Up  (\) Slide Down  (h) Hammer On  (p) Pull Off  (b) Bend (r) Release (v) Vibrato

Stave 1:

E|----------------------------------------------------------------------------------------------
B|----------------------------------------------------------------------------------------------
G|------------------------------------------------------------------13/14\13--16--13/14\13--16--
D|----------------------------------------------------14/16\14--14------------------------------
A|--5----------------------------------14--16--17-----------------------------------------------
E|--------5--4--2--4-----2/14--16--17-----------------------------------------------------------

Stave 2:

E|-----------------------------------------------------------16--16--16--16-----16--14--16--17--
B|--14-----15/17--17--17--17--17--17--17--17-----17--17--14--14--14--14--14-----14--------------
G|-------------------------------------------------------------------_-------------------------
D|-------------------------------------------------------------------_-------------------------
A|-------------------------------------------------------------------_-------------------------
E|-------------------------------------------------------------------_-------------------------

Stave 3:

E|--17/21--21--21-----21--21--21--
B|--------------------------------
G|--------------------------------
D|--------------------------------
A|--------------------------------
E|--------------------------------

http://www.guitartabcreator.com
Guitar Tab Creator is intended to store guitar tab created through the tool. It currently does not support in-line text editing. Any text you place in here will be lost. If you need to comment on your tab, please use the "Tab Notes" section located below.