Sound will begin in 5 seconds

Technical Difficulties Outro

01234567891011121314151617181920212223
E
B
G
D
A
E
B
0 1 2 3 4 5 6 7 8 9 10 11 12 13 14 15 16 17 18 19 20 21 22 23
Song Science #1: How Pros Use 6 Chords to Write Hit Songs
(/) Slide Up  (\) Slide Down  (h) Hammer On  (p) Pull Off  (b) Bend (r) Release (v) Vibrato

Stave 1:

E|---------------------------------------------------------------------------------------
B|---------------------------------------------------------------------------------------
G|---------------------------------------------------------------------------------------
D|---------------------------------------------------------------------------------------
A|---------2--3--5---------3--5--7---------5--7--9----------7--9--10-----------8--9--12--
E|--2h3h5-----------3h5h7-----------5h7h8-----------7h8h10------------8h10h12------------

Stave 2:

E|--------------------------------------------------------------------
B|--------------------------------------------------------------------
G|--------------------------------------------------------------------
D|--------------------------------------------------------------------
A|------------10--12--14------------12--14--15------------14--15--17--
E|--10h12h14--------------12h14h15--------------14h15h17--------------

Stave 3:

E|------------------------------------------------------------------------------------------
B|------------------------------------------------------------------------------------------
G|------------------------------------------------------------------------------------------
D|------------10--12--14------------12--14--16------------14--16--17------------16--17--19--
A|--10h12h14--------------12h14h15--------------14h15h17--------------15h17h18--------------
E|------------------------------------------------------------------------------------------

Stave 4:

E|--------------------------------------------------------------------
B|--------------------------------------------------------------------
G|------------12--14--16------------14--16--17------------16--17--19--
D|--12h14h16--------------14h16h17--------------16h17h19--------------
A|--------------------------------------------------------------------
E|--------------------------------------------------------------------

Stave 5:

E|-----------8--10--12------------10--12--14------------12--14--15------------14--15--17--
B|--8h10h12-------------10h12h13--------------12h13h15--------------13h15h17--------------
G|----------------------------------------------------------------------------------------
D|----------------------------------------------------------------------------------------
A|----------------------------------------------------------------------------------------
E|----------------------------------------------------------------------------------------

Stave 6:

E|------------15--17--19------------17--19--20------------19--20--22---------20--22--
B|--15h17h19--------------17h19h20--------------19h20h22--------------20h22----------
G|-----------------------------------------------------------------------------------
D|-----------------------------------------------------------------------------------
A|-----------------------------------------------------------------------------------
E|-----------------------------------------------------------------------------------

http://www.guitartabcreator.com
Guitar Tab Creator is intended to store guitar tab created through the tool. It currently does not support in-line text editing. Any text you place in here will be lost. If you need to comment on your tab, please use the "Tab Notes" section located below.