Sound will begin in 5 seconds

Scarified Solo Verse 2

01234567891011121314151617181920212223
E
B
G
D
A
E
B
0 1 2 3 4 5 6 7 8 9 10 11 12 13 14 15 16 17 18 19 20 21 22 23
Song Science #1: How Pros Use 6 Chords to Write Hit Songs
(/) Slide Up  (\) Slide Down  (h) Hammer On  (p) Pull Off  (b) Bend (r) Release (v) Vibrato

Stave 1:

E|------------------------------13--11--13--9------9----------
B|------------------------14p9--------------------------------
G|--13p10------10--13p10-----------------------13-----13--10--
D|---------13-------------------------------------------------
A|------------------------------------------------------------
E|------------------------------------------------------------

Stave 2:

E|------------------------14p9--14/17--16--14----------------------
B|--14p10------10--14p10-----------------------17--15--14----------
G|---------13----------------------------------------------16--14--
D|-----------------------------------------------------------------
A|-----------------------------------------------------------------
E|-----------------------------------------------------------------

Stave 3:

E|------------------------------13--11--13--9------9----------
B|------------------------14p9--------------------------------
G|--13p10------10--13p10-----------------------13-----13--10--
D|---------13-------------------------------------------------
A|------------------------------------------------------------
E|------------------------------------------------------------

Stave 4:

E|------------------------14p9--16h17p16p14------14--16--17--
B|--14p10------10--14p10---------------------17--------------
G|---------13------------------------------------------------
D|-----------------------------------------------------------
A|-----------------------------------------------------------
E|-----------------------------------------------------------

http://www.guitartabcreator.com
Guitar Tab Creator is intended to store guitar tab created through the tool. It currently does not support in-line text editing. Any text you place in here will be lost. If you need to comment on your tab, please use the "Tab Notes" section located below.