Sound will begin in 5 seconds

Scarified Solo Verse 1

01234567891011121314151617181920212223
E
B
G
D
A
E
B
0 1 2 3 4 5 6 7 8 9 10 11 12 13 14 15 16 17 18 19 20 21 22 23
Song Science #1: How Pros Use 6 Chords to Write Hit Songs
(/) Slide Up  (\) Slide Down  (h) Hammer On  (p) Pull Off  (b) Bend (r) Release (v) Vibrato

Stave 1:

E|-------------------------------------------------------------
B|------------------------19p14----------14--15p14--19p14------
G|--18p14------14--18p14---------14--16--------------------14--
D|---------18--------------------------------------------------
A|-------------------------------------------------------------
E|-------------------------------------------------------------

Stave 2:

E|------------------------19p14----------14--15p14--19p14------
B|--19p15------15--19p15---------15--17--------------------15--
G|---------18--------------------------------------------------
D|-------------------------------------------------------------
A|-------------------------------------------------------------
E|-------------------------------------------------------------

Stave 3:

E|-------------------------------16--14--16--12------12----------
B|------------------------17p12----------------------------------
G|--16p13------13--16p13-------------------------16------16--13--
D|---------16----------------------------------------------------
A|---------------------------------------------------------------
E|---------------------------------------------------------------

Stave 4:

E|-------------------------------21--19--21--17------17----------
B|------------------------22p17----------------------------------
G|--21p18------18--21p18-------------------------21------21--18--
D|---------21----------------------------------------------------
A|---------------------------------------------------------------
E|---------------------------------------------------------------

Stave 5:

E|-------------------------------14--12--14--10------10----------
B|------------------------15p10----------------------------------
G|--14p11------11--14p11-------------------------14------14--11--
D|---------14----------------------------------------------------
A|---------------------------------------------------------------
E|---------------------------------------------------------------

Stave 6:

E|-------------------------------19--17--19--14------14----------
B|------------------------19p15----------------------------------
G|--19p16------16--19p16-------------------------19------19--16--
D|---------19----------------------------------------------------
A|---------------------------------------------------------------
E|---------------------------------------------------------------

http://www.guitartabcreator.com
Guitar Tab Creator is intended to store guitar tab created through the tool. It currently does not support in-line text editing. Any text you place in here will be lost. If you need to comment on your tab, please use the "Tab Notes" section located below.