Sound will begin in 5 seconds

Scarified Solo Tapping

01234567891011121314151617181920212223
E
B
G
D
A
E
B
0 1 2 3 4 5 6 7 8 9 10 11 12 13 14 15 16 17 18 19 20 21 22 23
Song Science #1: How Pros Use 6 Chords to Write Hit Songs
(/) Slide Up  (\) Slide Down  (h) Hammer On  (p) Pull Off  (b) Bend (r) Release (v) Vibrato

Stave 1:

E|------------------------------------------
B|------------------------------------------
G|----------------------18p16h18--19p18p16--
D|--18p16h18--19p18p16----------------------
A|------------------------------------------
E|------------------------------------------

Stave 2:

E|------------------------------------------
B|------------------------------------------
G|----------------------16p14h16--18p16p14--
D|--16p14h16--18p16p14----------------------
A|------------------------------------------
E|------------------------------------------

Stave 3:

E|---------------------------------------------------------------------
B|---------------------------------------------------------------------
G|----------------------14p13h14--16p14p13--16p14h16--18p16p14--19p18--
D|--14p12h14--16p14p12-------------------------------------------------
A|---------------------------------------------------------------------
E|---------------------------------------------------------------------

http://www.guitartabcreator.com
Guitar Tab Creator is intended to store guitar tab created through the tool. It currently does not support in-line text editing. Any text you place in here will be lost. If you need to comment on your tab, please use the "Tab Notes" section located below.