Sound will begin in 5 seconds

Scarified Pre-Solo

01234567891011121314151617181920212223
E
B
G
D
A
E
B
0 1 2 3 4 5 6 7 8 9 10 11 12 13 14 15 16 17 18 19 20 21 22 23
Song Science #1: How Pros Use 6 Chords to Write Hit Songs
(/) Slide Up  (\) Slide Down  (h) Hammer On  (p) Pull Off  (b) Bend (r) Release (v) Vibrato

Stave 1:

E|--14p10--------------------10-------------11--14p11---------
B|------------------------------------------------------------
G|---------14p11------11h14----------11h14-------------14p11--
D|----------------12-------------13---------------------------
A|------------------------------------------------------------
E|------------------------------------------------------------

Stave 2:

E|--16p12--------------------12-------------13--16p13-----------------
B|------------------------------------------------------------17b19v--
G|---------16p13------13h16----------13h16-------------16p13----------
D|----------------14-------------15-----------------------------------
A|--------------------------------------------------------------------
E|--------------------------------------------------------------------

http://www.guitartabcreator.com
Guitar Tab Creator is intended to store guitar tab created through the tool. It currently does not support in-line text editing. Any text you place in here will be lost. If you need to comment on your tab, please use the "Tab Notes" section located below.