Sound will begin in 5 seconds

8. E Flat

Chords
01234567891011121314151617181920212223
E
B
G
D
A
E
B
0 1 2 3 4 5 6 7 8 9 10 11 12 13 14 15 16 17 18 19 20 21 22 23
Top Courses in Music 160x600
(/) Slide Up  (\) Slide Down  (h) Hammer On  (p) Pull Off  (b) Bend (r) Release (v) Vibrato

Stave 1:

E|--6--|--3--|--3--|--11--|--
B|--8--|--4--|--4--|--11--|--
G|--8--|--3--|--3--|--12--|--
D|--8--|--5--|--1--|--13--|--
A|--6--|--6--|-----|--13--|--
E|-----|-----|-----|--11--|--

Stave 2:

E|----------------------------------18----------------------------------
B|--------------------------16--20------20--16--------------------------
G|----------------------15----------------------15----------------------
D|--------------13--17------------------------------17--13--------------
A|----------13----------------------------------------------13----------
E|--11--15------------------------------------------------------15--11--

Stave 3:

E|------------------------11------------------------15--18p15------------------------11------------------------
B|----------------------------------------------16-------------16----------------------------------------------
G|-----------------12h15------15p12------12h15---------------------15p12------12h15------15p12-----------------
D|-------------13--------------------13-----------------------------------13--------------------13-------------
A|------10h13---------------------------------------------------------------------------------------13p10------
E|--11-----------------------------------------------------------------------------------------------------11--

http://www.guitartabcreator.com
Guitar Tab Creator is intended to store guitar tab created through the tool. It currently does not support in-line text editing. Any text you place in here will be lost. If you need to comment on your tab, please use the "Tab Notes" section located below.