Sound will begin in 5 seconds

7. G Minor

Chords
01234567891011121314151617181920212223
E
B
G
D
A
E
B
0 1 2 3 4 5 6 7 8 9 10 11 12 13 14 15 16 17 18 19 20 21 22 23
Top Courses in Music 160x600
(/) Slide Up  (\) Slide Down  (h) Hammer On  (p) Pull Off  (b) Bend (r) Release (v) Vibrato

Stave 1:

E|--3--|--10--|--6--
B|--3--|--11--|--8--
G|--3--|--12--|--7--
D|--5--|--12--|--5--
A|--5--|--10--|-----
E|--3--|------|-----

Stave 2:

E|----------------------------------22----------------------------------
B|--------------------------20--23------23--20--------------------------
G|----------------------19----------------------19----------------------
D|--------------17--20------------------------------20--17--------------
A|----------17----------------------------------------------17----------
E|--15--18------------------------------------------------------18--15--

Stave 3:

E|------------------------15------------------------18--22p18------------------------15------------------------
B|----------------------------------------------20-------------20----------------------------------------------
G|-----------------15h19------19p15------15h19---------------------19p15------15h19------19p15-----------------
D|-------------17--------------------17-----------------------------------17--------------------17-------------
A|------13h17---------------------------------------------------------------------------------------17p13------
E|--15-----------------------------------------------------------------------------------------------------15--

http://www.guitartabcreator.com
Guitar Tab Creator is intended to store guitar tab created through the tool. It currently does not support in-line text editing. Any text you place in here will be lost. If you need to comment on your tab, please use the "Tab Notes" section located below.