Sound will begin in 5 seconds

6. B Flat

Chords
01234567891011121314151617181920212223
E
B
G
D
A
E
B
0 1 2 3 4 5 6 7 8 9 10 11 12 13 14 15 16 17 18 19 20 21 22 23
Top Courses in Music 160x600
(/) Slide Up  (\) Slide Down  (h) Hammer On  (p) Pull Off  (b) Bend (r) Release (v) Vibrato

Stave 1:

E|--1--|--6--|--6--|--10--|--13--|--10--
B|--3--|--6--|--6--|--11--|--15--|--11--
G|--3--|--7--|--7--|--10--|--15--|--10--
D|--3--|--8--|--8--|--8---|--15--|--12--
A|--1--|--8--|-----|------|--13--|--13--
E|-----|--6--|-----|------|------|------

Stave 2:

E|-------------------------------13-------------------------------
B|-----------------------11--15------15--11-----------------------
G|-------------------10----------------------10-------------------
D|------------8--12------------------------------12--8------------
A|---------8--------------------------------------------8---------
E|--6--10--------------------------------------------------10--6--

Stave 3:

E|-------------------6---------------------10--13p10---------------------6-------------------
B|-------------------------------------11-------------11-------------------------------------
G|-------------7h10-----10p7-----7h10---------------------10p7-----7h10-----10p7-------------
D|----------8-----------------8---------------------------------8-----------------8----------
A|-----5h8---------------------------------------------------------------------------8p5-----
E|--6-------------------------------------------------------------------------------------6--

http://www.guitartabcreator.com
Guitar Tab Creator is intended to store guitar tab created through the tool. It currently does not support in-line text editing. Any text you place in here will be lost. If you need to comment on your tab, please use the "Tab Notes" section located below.