Sound will begin in 5 seconds

5. D Minor

Chords
01234567891011121314151617181920212223
E
B
G
D
A
E
B
0 1 2 3 4 5 6 7 8 9 10 11 12 13 14 15 16 17 18 19 20 21 22 23
Top Courses in Music 160x600
(/) Slide Up  (\) Slide Down  (h) Hammer On  (p) Pull Off  (b) Bend (r) Release (v) Vibrato

Stave 1:

E|--1--|--5--|--10--
B|--3--|--6--|--10--
G|--2--|--7--|--10--
D|--0--|--7--|--12--
A|-----|--5--|--12--
E|-----|-----|--10--

Stave 2:

E|----------------------------------17----------------------------------
B|--------------------------15--18------18--15--------------------------
G|----------------------14----------------------14----------------------
D|--------------12--15------------------------------15--12--------------
A|----------12----------------------------------------------12----------
E|--10--13------------------------------------------------------13--10--

Stave 3:

E|-----------------------10------------------------13--17p13------------------------10-----------------------
B|---------------------------------------------15-------------15---------------------------------------------
G|----------------10h14------14p10------10h14---------------------14p10------10h14------14p10----------------
D|------------12--------------------12-----------------------------------12--------------------12------------
A|------8h12---------------------------------------------------------------------------------------12p8------
E|--10---------------------------------------------------------------------------------------------------10--

http://www.guitartabcreator.com
Guitar Tab Creator is intended to store guitar tab created through the tool. It currently does not support in-line text editing. Any text you place in here will be lost. If you need to comment on your tab, please use the "Tab Notes" section located below.