Sound will begin in 5 seconds

4. F

Chords
01234567891011121314151617181920212223
E
B
G
D
A
E
B
0 1 2 3 4 5 6 7 8 9 10 11 12 13 14 15 16 17 18 19 20 21 22 23
Top Courses in Music 160x600
(/) Slide Up  (\) Slide Down  (h) Hammer On  (p) Pull Off  (b) Bend (r) Release (v) Vibrato

Stave 1:

E|--1--|--8---|--5--|--1--|--5--
B|--1--|--10--|--6--|--1--|--6--
G|--2--|--10--|--5--|--2--|--5--
D|--3--|--10--|--7--|--3--|--3--
A|--3--|--8---|--8--|-----|-----
E|--1--|------|-----|-----|-----

Stave 2:

E|----------------------------------20----------------------------------
B|--------------------------18--22------22--18--------------------------
G|----------------------17----------------------17----------------------
D|--------------15--19------------------------------19--15--------------
A|----------15----------------------------------------------15----------
E|--13--17------------------------------------------------------17--13--

Stave 3:

E|------------------------13------------------------17--20p17------------------------13------------------------
B|----------------------------------------------18-------------18----------------------------------------------
G|-----------------14h17------17p14------14h17---------------------17p14------14h17------17p14-----------------
D|-------------15--------------------15-----------------------------------15--------------------15-------------
A|------12h15---------------------------------------------------------------------------------------15p12------
E|--13-----------------------------------------------------------------------------------------------------13--

http://www.guitartabcreator.com
Guitar Tab Creator is intended to store guitar tab created through the tool. It currently does not support in-line text editing. Any text you place in here will be lost. If you need to comment on your tab, please use the "Tab Notes" section located below.