Sound will begin in 5 seconds

3. A minor

Chords
01234567891011121314151617181920212223
E
B
G
D
A
E
B
0 1 2 3 4 5 6 7 8 9 10 11 12 13 14 15 16 17 18 19 20 21 22 23
Top Courses in Music 160x600
(/) Slide Up  (\) Slide Down  (h) Hammer On  (p) Pull Off  (b) Bend (r) Release (v) Vibrato

Stave 1:

E|--0--|--5--|--5--|--8---|--12--
B|--1--|--5--|--5--|--10--|--13--
G|--2--|--5--|--5--|--9---|--14--
D|--2--|--7--|--2--|--7---|--14--
A|--0--|--7--|--0--|------|--12--
E|-----|--5--|-----|------|------

Stave 2:

E|-----------------------------12-----------------------------
B|---------------------10--13------13--10---------------------
G|------------------9----------------------9------------------
D|-----------7--10----------------------------10--7-----------
A|--------7------------------------------------------7--------
E|--5--8------------------------------------------------8--5--

Stave 3:

E|------------------5-------------------8--12p8-------------------5------------------
B|----------------------------------10-----------10----------------------------------
G|-------------5h9-----9p5-----5h9-------------------9p5-----5h9-----9p5-------------
D|----------7---------------7-----------------------------7---------------7----------
A|-----3h7-------------------------------------------------------------------7p3-----
E|--5-----------------------------------------------------------------------------5--

http://www.guitartabcreator.com
Guitar Tab Creator is intended to store guitar tab created through the tool. It currently does not support in-line text editing. Any text you place in here will be lost. If you need to comment on your tab, please use the "Tab Notes" section located below.