Sound will begin in 5 seconds

2. C

Chords
01234567891011121314151617181920212223
E
B
G
D
A
E
B
0 1 2 3 4 5 6 7 8 9 10 11 12 13 14 15 16 17 18 19 20 21 22 23
Top Courses in Music 160x600
(/) Slide Up  (\) Slide Down  (h) Hammer On  (p) Pull Off  (b) Bend (r) Release (v) Vibrato

Stave 1:

E|--0--|--3--|--8---|--3--|--12--|--12--
B|--1--|--5--|--8---|--1--|--13--|--13--
G|--0--|--5--|--9---|--0--|--12--|--12--
D|--2--|--5--|--10--|--2--|--14--|--10--
A|--3--|--3--|--10--|--3--|--15--|------
E|-----|-----|--8---|-----|------|------

Stave 2:

E|---------------------------------15---------------------------------
B|-------------------------13--17------17--13-------------------------
G|---------------------12----------------------12---------------------
D|-------------10--14------------------------------14--10-------------
A|---------10----------------------------------------------10---------
E|--8--12------------------------------------------------------12--8--

Stave 3:

E|---------------------8----------------------12--15p12----------------------8---------------------
B|----------------------------------------13-------------13----------------------------------------
G|---------------9h12-----12p9------9h12---------------------12p9------9h12-----12p9---------------
D|-----------10-----------------10---------------------------------10-----------------10-----------
A|-----7h10-------------------------------------------------------------------------------10p7-----
E|--8-------------------------------------------------------------------------------------------8--

http://www.guitartabcreator.com
Guitar Tab Creator is intended to store guitar tab created through the tool. It currently does not support in-line text editing. Any text you place in here will be lost. If you need to comment on your tab, please use the "Tab Notes" section located below.