Sound will begin in 5 seconds

1. E minor

Chords
01234567891011121314151617181920212223
E
B
G
D
A
E
B
0 1 2 3 4 5 6 7 8 9 10 11 12 13 14 15 16 17 18 19 20 21 22 23
Top Courses in Music 160x600
(/) Slide Up  (\) Slide Down  (h) Hammer On  (p) Pull Off  (b) Bend (r) Release (v) Vibrato

Stave 1:

E|--0--|--7--|--0---|--3--|--
B|--0--|--8--|--8---|--5--|--
G|--0--|--9--|--0---|--4--|--
D|--2--|--9--|--9---|--2--|--
A|--2--|--7--|--10--|-----|--
E|--0--|-----|--0---|-----|--

Stave 2:

E|----------------------------------19----------------------------------
B|--------------------------17--20------20--17--------------------------
G|----------------------16----------------------16----------------------
D|--------------14--17------------------------------17--14--------------
A|----------14----------------------------------------------14----------
E|--12--15------------------------------------------------------15--12--

Stave 3:

E|------------------------12------------------------15--19p15------------------------12------------------------
B|----------------------------------------------17-------------17----------------------------------------------
G|-----------------12h16------16p12------12h16---------------------16p12------12h16------16p12-----------------
D|-------------14--------------------14-----------------------------------14--------------------14-------------
A|------10h14---------------------------------------------------------------------------------------14p10------
E|--12-----------------------------------------------------------------------------------------------------12--

http://www.guitartabcreator.com
Guitar Tab Creator is intended to store guitar tab created through the tool. It currently does not support in-line text editing. Any text you place in here will be lost. If you need to comment on your tab, please use the "Tab Notes" section located below.