Sound will begin in 5 seconds

Ghost - Cirice (Guitar Solo)

01234567891011121314151617181920212223
E
B
G
D
A
E
B
0 1 2 3 4 5 6 7 8 9 10 11 12 13 14 15 16 17 18 19 20 21 22 23
Song Science #1: How Pros Use 6 Chords to Write Hit Songs
(/) Slide Up  (\) Slide Down  (h) Hammer On  (p) Pull Off  (b) Bend (r) Release (v) Vibrato

Stave 1:

E|-------------------------------------------------------------------------------15b17r15--
B|----------12b13r13----------------------------17b18r17-----------------15--17------------
G|------14------------12------14------------14------------17------17-----------------------
D|--14--------------------12------------15--------------------17---------------------------
A|-----------------------------------------------------------------------------------------
E|-----------------------------------------------------------------------------------------

Stave 2:

E|------17--19b20r19--15--------------------------
B|--17--------------------15--19b20r19--15b17r15--
G|------------------------------------------------
D|------------------------------------------------
A|------------------------------------------------
E|------------------------------------------------

Stave 3:

E|------------------------------------------------
B|------------------------------------------------
G|---------------------7b9r7------7---------------
D|--7h10p7------7--10---------10-----10--7--------
A|----------10------------------------------------
E|------------------------------------------------

Stave 4:

E|------------------------------------------------------------------------------------------
B|-----------------------------------------------------------------------------------12h13--
G|----------------------------------------------------------------------------12h14---------
D|-------------------------------------------------10h12h14--12-----12h14h15----------------
A|--8--10--12--8--10--12/14--10--12--14--10h12h14-------------------------------------------
E|------------------------------------------------------------------------------------------

Stave 5:

E|-----------------------------------15b17--12v-----17p16-----------------------------------------------
B|--13--12h13p12----------15b17----------------------------17-------------------------------------------
G|----------------14--12---------14----------------------------17--16-----------------------------------
D|---------------------------------------------------------------------19--18b19r18b19r18b19r18b19r18v--
A|------------------------------------------------------------------------------------------------------
E|------------------------------------------------------------------------------------------------------

Stave 6:

E|--17p16p12-------------------------------------
B|------------13p12------------------------------
G|-------------------14--13b14r13b14r13b14r13b14r
D|-----------------------------------------------
A|-----------------------------------------------
E|-----------------------------------------------

http://www.guitartabcreator.com
Guitar Tab Creator is intended to store guitar tab created through the tool. It currently does not support in-line text editing. Any text you place in here will be lost. If you need to comment on your tab, please use the "Tab Notes" section located below.