Sound will begin in 5 seconds

The Way You Do The Things You Do

Chords
01234567891011121314151617181920212223
E
B
G
D
A
E
B
0 1 2 3 4 5 6 7 8 9 10 11 12 13 14 15 16 17 18 19 20 21 22 23
Song Science #1: How Pros Use 6 Chords to Write Hit Songs
(/) Slide Up  (\) Slide Down  (h) Hammer On  (p) Pull Off  (b) Bend (r) Release (v) Vibrato

Stave 1:

E|----8--------------------------------------8-----------------------------------|-
B|----8-----10-8-----------------------------8----------10-8---------------------|-
G|----9-----10-8---0-------------------------9----------10-8---------------------|-
D|----8-----10-8h9-0----------10-12----10----8----------10-8h9----------10-12----|-
A|----10-------------10-10h12-------12-------10-------------------10/12-------12-|-
E|----8--------------------------------------8--------8--------------------------|-

Stave 2:

E|-----8-8---------------|-----------------------------|-------------------|-----------------------------|-
B|-----8-----------------|-----------------------------|--------------8----|-----------------------------|-
G|-8/9-----10b11p9-8-----|-----------------------------|-8/9v----8-10-8h9v-|-----------------------------|-
D|-------------------10v-|-------10-10----10-10-12/14v-|-----------10------|-------10-10----10-12p10-----|-
A|-----------------------|-10h12-------12--------------|-------------------|-10h12-------12----------10v-|-
E|-----------------------|-----------------------------|-------------------|-----------------------------|-

Stave 3:

E|--------------------|---------------------------|-----8-8--------------------|-------12-11-10--------|-
B|---------------8----|-------11-11v--------------|-----8----------------------|----------------8------|-
G|-8/9v----10-10-8h9v-|-10/12--------12p10--------|-8/9-----10r---8-10p8-8b----|-10/12-------10-8-9----|-
D|---------10-10------|--------------------12-10v-|------------------------10v-|--------------------10-|-
A|--------------------|---------------------------|----------------------------|-----------------------|-
E|--------------------|---------------------------|----------------------------|-----------------------|-

Stave 4:

E|-8----------------|--------------------------|-----8-8----------------------|-------------------------|-
B|-8----------------|--------------------------|-----8---11p10p8--------------|-------------------------|-
G|-9-----8-8h9-8----|--------------------------|-8/9-------------10p9p8-8-----|-------------------------|-
D|-8-----8-8---8-10-|-------10-12b14-14r12-10v-|--------------------------10v-|-------------10----10-12/|-
A|-10------------10-|-10/12--------------------|------------------------------|-10/12-12-12----12-------|-
E|------------------|--------------------------|------------------------------|-------------------------|-

Stave 5:

E|--------------------------|----------------------------------------------
B|--------------------------|-13v------------------------------------------
G|--------------------------|----------------------------------------------
D|----------10----10-12/14v-|-----14\12-10----13-12-10----12-10v-----------
A|-10/12-12-----------------|--------------12----------12--------12-10-9-8-
E|--------------------------|----------------------------------------------

Stave 6:

E|-----------------------------------------------------------------------
B|-------------------16-16b17-16b18--------------------------------------
G|----12/14-14-17-17----------------17-16-15-17-16-15--------------------
D|-14-------------------------------------------------17-16-15-15\14-----
A|-------------------------------------------------------------------15v-
E|-----------------------------------------------------------------------

Stave 7:

E|-13/15-15-15v----------------------------------------------------------------------------------------------8---|-
B|--------------15-15----15----15p14p13-13-15b17-15b17-12-13-12-------12-13-15b17-17----13-------------------8---|-
G|--------------------16----------------------------------------14-------------------------14p12-12\10----10-8h9-|-
D|-----------------------------------------------------------------------------------------------------12--------|-
A|---------------------------------------------------------------------------------------------------------------|-
E|---------------------------------------------------------------------------------------------------------------|-

Stave 8:

E|-----8-8-------|-----8-8-----------------|-------8------------------------|-----8------------|-
B|-----8---------|-----8---11p8------------|-----8---11-8------8------------|-------11-8-------|-
G|-8/9-8---10-9v-|-8/9----------10p9-8-----|-8h9----------10-9---10-9-8-----|-8\9--------10-9v-|-
D|---------------|---------------------10v-|----------------------------10v-|------------------|-
A|---------------|-------------------------|--------------------------------|------------------|-
E|---------------|-------------------------|--------------------------------|------------------|-

Stave 9:

E|----------------------|----8----8---------|--------------|-8-8-----------8-8-|-
B|----------10----------|----8--------------|--------------|-------------------|-
G|-9-9-9b11----11r9-----|--------------8h9v-|-8/9-9v-10-8v-|-----9h10p9-10-----|-
D|------------------10v-|-10---10---10------|--------10----|------------10-----|-
A|----------------------|-------------------|--------------|-------------------|-
E|----------------------|-------------------|--------------|-------------------|-

Stave 10:

E|-8---------------------|-----------------------------|-
B|-10--------------------|----------------10-----------|-
G|-10----------------10v-|----------------10-----------|-
D|-10-------------10-----|-------10-------10-----------|-
A|-8-----10h11h12--------|-10h12-------12-------12-10v-|-
E|-----------------------|-----------------------------|-

Stave 11:

E|--------------------------|--------------------------------|-------------------------|-------------------------------|-
B|--------------------------|-15b16-15b17----15p13----15b17v-|-------------------------|-------13-15p14p13----13-13----|-
G|--------------------------|----------------------15--------|-------------------------|-12/14-------------14-------14-|-
D|-------10-10----10-12/14v-|--------------------------------|----------10----10-13-10-|-------------------------------|-
A|-10h12-------12-----------|--------------------------------|-10h12-12----12----------|-------------------------------|-
E|--------------------------|--------------------------------|-------------------------|-------------------------------|-

Stave 12:

E|-----------------------------------------------|-------------------------------------------------|-
B|------8-11-8-10b11v----10p9p8----9-8-----------|-------11-12-13----11-12-13----11-12-13-12b13v-v-|-
G|----8-------------------------10-----10-9-8v-v-|-10/12-------------------------------------------|-
D|-10--------------------------------------------|-------------------------------------------------|-
A|-----------------------------------------------|-------------------------------------------------|-
E|-----------------------------------------------|-------------------------------------------------|-

Stave 13:

E|------------------------------------|-
B|------------------------------------|-
G|-8-7-8----9-8-9----10-9-10-11/12v-v-|-
D|------------------------------------|-
A|------------------------------------|-
E|------------------------------------|-

Stave 14:

E|---------------------------|--------------------------|-
B|-8-------6-7-8-------8-9-8-|-8----7/8----10b13v-v-v---|-
G|-7-------5-6-7-------7-8-7-|-7----6-7---------------8b|-
D|-8-------6-7-8-------8-9-8-|-8----7-8-----------------|-
A|-7-------5-6-7-------7-8-7-|-7----6-7-----------------|-
E|---------------------------|--------------------------|-

http://www.guitartabcreator.com
Guitar Tab Creator is intended to store guitar tab created through the tool. It currently does not support in-line text editing. Any text you place in here will be lost. If you need to comment on your tab, please use the "Tab Notes" section located below.