Sound will begin in 5 seconds

Standing on the Moon (solo 7-6-90)

Chords
01234567891011121314151617181920212223
E
B
G
D
A
E
B
0 1 2 3 4 5 6 7 8 9 10 11 12 13 14 15 16 17 18 19 20 21 22 23
Top Courses in Music 160x600
(/) Slide Up  (\) Slide Down  (h) Hammer On  (p) Pull Off  (b) Bend (r) Release (v) Vibrato

Stave 1:

E|-----------------------------------------------------------------------|-
B|----------------------------12-13-15v-v----15-13b15-13p12-13p12--------|-
G|-------------------12-13-14-------------------------12----------14-12v-|-
D|----------12-13-14-----------------------------------------------------|-
A|-12-14-15--------------------------------------------------------------|-
E|-----------------------------------------------------------------------|-

Stave 2:

E|---------------------19p18p17----------------------------------|-
B|-15b17v-------15v-------------18b19-------------------15-------|-
G|--------13/14-----------------------19-17v-v----14/16----------|-
D|---------------------------------------------------------17v-v-|-
A|---------------------------------------------------------------|-
E|---------------------------------------------------------------|-

Stave 3:

E|-19p18p17\15v-17p16p15----15----------------------------------12-----------------------|-|-
B|-----------------------17----17b19-17p15-15v-v----12-13-14-15----13-12-----------------|-|-
G|-----------------------------------------------------------------------14-13-12\11-----|-|-
D|-----------------------------------------------------------------------------------12v-|-|-
A|---------------------------------------------------------------------------------------|-|-
E|---------------------------------------------------------------------------------------|-|-

Stave 4:

E|-------------------------------------|-
B|------------------------------12-----|-
G|-11\9----------------------------12v-|-
D|------10v----10p9-----9-10/12--------|-
A|------------------10v----------------|-
E|-------------------------------------|-

Stave 5:

E|--------------------------------------
B|-7b9v-v------5-5h7p5---5-6b7-5h6p5----
G|-----------7---------7-------------7v-
D|--------------------------------------
A|--------------------------------------
E|--------------------------------------

Stave 6:

E|----------------10-12-13-14----15-17-19-19p18p17-17-18b19-19-19r18-18p17\15-16b17-15v-------------
B|-8p7-------------------------------------------------------------------------------------17b19v-v-
G|-----9-8p7-9/11----12-13-14-15/16-17-19-----------------------------------------------------------
D|--------------------------------------------------------------------------------------------------
A|--------------------------------------------------------------------------------------------------
E|--------------------------------------------------------------------------------------------------

http://www.guitartabcreator.com
Guitar Tab Creator is intended to store guitar tab created through the tool. It currently does not support in-line text editing. Any text you place in here will be lost. If you need to comment on your tab, please use the "Tab Notes" section located below.