Sound will begin in 5 seconds

Standing on the Moon

01234567891011121314151617181920212223
E
B
G
D
A
E
B
0 1 2 3 4 5 6 7 8 9 10 11 12 13 14 15 16 17 18 19 20 21 22 23
Song Science #1: How Pros Use 6 Chords to Write Hit Songs
(/) Slide Up  (\) Slide Down  (h) Hammer On  (p) Pull Off  (b) Bend (r) Release (v) Vibrato

Stave 1:

E|--------------------------12----12-14-15v---------------------------------------------------|-
B|---8-7-8---------------15----15--------------19r17-15-15-15v----17p15-----------------------|-
G|-9-------9-7---7-7v---------------------------------------------------17-14b16r14-14p12-12v-|-
D|-------------7------------------------------------------------------------------------------|-
A|--------------------------------------------------------------------------------------------|-
E|--------------------------------------------------------------------------------------------|-

Stave 2:

E|------------------------------------------|-------------------------------14-15/17-15p14-----|-
B|----------------13/15v-------13-10v----8v-|-------------------------12-15----------------15v-|-
G|----12-12----12-----------12--------------|----------------11-12-14--------------------------|-
D|-14-------14-----------14-----------------|----------12-14-----------------------------------|-
A|------------------------------------------|-15-14-15-----------------------------------------|-
E|------------------------------------------|--------------------------------------------------|-

Stave 3:

E|-------17---------------------------------------------------------------------------------------|-
B|-17/19----19p17-15v-15-17--------------------------------------------------------------15-15v-v-|-
G|--------------------------17----16v----16p14----------------------------------------14----------|-
D|-----------------------------17--------------17-16-14----------------------14-16-17-------------|-
A|------------------------------------------------------15-14----15-14-15-17----------------------|-
E|------------------------------------------------------------15----------------------------------|-

Stave 4:

E|------------------------------
B|-13b15r13---------------------
G|----------14b16-14-14v-12-12v-
D|------------------------------
A|------------------------------
E|------------------------------

Stave 5:

E|-------------------------------------------|-------12-12-----------|-
B|-15b17-15-15v-17p15-15-15v-----------------|-12/13-------15b17-15v-|-
G|------------------------------14b16r14-12v-|-----------------------|-
D|-------------------------------------------|-----------------------|-
A|-------------------------------------------|-----------------------|-
E|-------------------------------------------|-----------------------|-

Stave 6:

E|-17p15p14-17-15-14-------17-15-14----17-15-14-------------------------------------|-
B|-------------------17-15----------------------17-15-------------------------------|-
G|----------------------------------------------------17-16-14----------17----16v-v-|-
D|----------------------------------------------------------------16/17----17-------|-
A|----------------------------------------------------------------------------------|-
E|----------------------------------------------------------------------------------|-

http://www.guitartabcreator.com
Guitar Tab Creator is intended to store guitar tab created through the tool. It currently does not support in-line text editing. Any text you place in here will be lost. If you need to comment on your tab, please use the "Tab Notes" section located below.