Sound will begin in 5 seconds

She Belongs to Me II

Chords
01234567891011121314151617181920212223
E
B
G
D
A
E
B
0 1 2 3 4 5 6 7 8 9 10 11 12 13 14 15 16 17 18 19 20 21 22 23
Song Science #1: How Pros Use 6 Chords to Write Hit Songs
(/) Slide Up  (\) Slide Down  (h) Hammer On  (p) Pull Off  (b) Bend (r) Release (v) Vibrato

Stave 1:

E|---------------------------------------------------------------------------2-|-
B|---------------------------------------------------------------------------3-|-
G|----------------------------4----4---4-----7-------------------------------2-|-
D|-------------------5----4-5--------5---5/7------5----4----0h2-2-0----4-2-0---|-
A|-0-2-0-2-5/6-5-6/7-----------------------------------------------------------|-
E|-----------------------------------------------------------------------------|-

Stave 2:

E|--------------------------------------------------------|-
B|-------------7-------------8-8------7h8-7-------------7-|-
G|-----------7-------------7-----7----------9-7-------7-7-|-
D|-7h9-7---7-----------7/9----------------------------9-7-|-
A|-------9------------------------------------------------|-
E|--------------------------------------------------------|-

Stave 3:

E|-10-8-7---------7-----------7-7-----------------------------7---|-
B|--------10-8-10------10-8-7-8---9/10-7----10/12-8---------8---7-|-
G|----------------------------7---------------------9-7---7-------|-
D|------------------------------------------------------9---------|-
A|----------------------------------------------------------------|-
E|----------------------------------------------------------------|-

Stave 4:

E|--------------------------------------------------------------|-
B|--------------------------------------------------------------|-
G|-------7h8h9-7-------------7h8h9-7----------------------------|-
D|-7h8h9---------9-7-9-5-7/9---------9-7------------------------|-
A|---------------------------------------9-7\5-------7/9---7-5v-|-
E|-------------------------------------------------------7------|-

Stave 5:

E|--------------------------------------------------------------------------|-
B|-7-8-10-7----------------------------8---8-8------------------------------|-
G|----------9-7-7h9-7----------------7---7-----9-7-------9/11-9-7----5/7v-v-|-
D|--------------------9-7----5-5-7/9----------------------------------------|-
A|--------------------------------------------------------------------------|-
E|--------------------------------------------------------------------------|-

Stave 6:

E|-----------------------------------------------------------------------|-
B|-12-10-------10--------------------------------------------------------|-
G|-------12-------12-10-------12-10-------10----------------------11-----|-
D|----------------------12----------12-------12-10-------12----12----12v-|-
A|-------------------------------------------------12-------12-----------|-
E|-----------------------------------------------------------------------|-

Stave 7:

E|-------------------------------------------------------------------------------|-
B|---------9v-----------------------------------8-8---8----------------------7---|-
G|-------------------7-7---7-8-9-7----------7-9-----7---7h9-7--------------7---7-|-
D|-7-6-7/9-------7h9-----9---------9----7h9-------------------9-7----9-9-7-----7-|-
A|-------------------------------------------------------------------------------|-
E|-------------------------------------------------------------------------------|-

Stave 8:

E|-----------------------------------------7----10---------------------------------2---3-3-|-
B|-----------------------------------8---8-----------7---------------------------3---3-3---|-
G|--------------------4--------4-5/7---7-----------7---7-----------------------2-------2---|-
D|-0-2-0-2----0-2-4/6------4-5---------------------------7-------------------0---------0---|-
A|---------------------------------------------------------9-7-5-------0-2-0---------------|-
E|-----------------------------------------------------------------------------------------|-

http://www.guitartabcreator.com
Guitar Tab Creator is intended to store guitar tab created through the tool. It currently does not support in-line text editing. Any text you place in here will be lost. If you need to comment on your tab, please use the "Tab Notes" section located below.