Sound will begin in 5 seconds

She Belongs To Me

Chords
01234567891011121314151617181920212223
E
B
G
D
A
E
B
0 1 2 3 4 5 6 7 8 9 10 11 12 13 14 15 16 17 18 19 20 21 22 23
Song Science #1: How Pros Use 6 Chords to Write Hit Songs
(/) Slide Up  (\) Slide Down  (h) Hammer On  (p) Pull Off  (b) Bend (r) Release (v) Vibrato

Stave 1:

E|--------------------------------------------------------------|-
B|-----------------8----8-------8------------------------7------|-
G|-------------7-9--------9-7-9------9-7-----------------7------|-
D|-----------7---------------------------9-7-9-------9-7-7----0-|-
A|-5-7-5-7/9--------------------------------------10------------|-
E|--------------------------------------------------------------|-

Stave 2:

E|-12-12p11-10--------------------------------------------------------------------------------|-
B|-------------13-12-10----10---------------8-------9-12-12-12----10-12b14-10-----------------|-
G|----------------------12--------------------------8-11----------------------11----10/11-9-7-|-
D|-------------------------------12-11-10\9---------9/12--------------------------------------|-
A|--------------------------------------------------------------------------------------------|-
E|--------------------------------------------------------------------------------------------|-

Stave 3:

E|-------------------------------------------------------------------|-12----14----15----|-
B|-------12-14b16-12-------------------15-------15----15-16b17-15v-v-|-------------------|-
G|-11/13-------------13----13-14/16-16----16-16----16----------------|-------------------|-
D|----------------------14-------------------------------------------|-------------------|-
A|-------------------------------------------------------------------|-------------------|-
E|-------------------------------------------------------------------|-------------------|-

Stave 4:

E|-17v-15p14\12-12-----------------------------------------------------------------
B|-----------------15----15----------------12-12h13-10----10h12p10\8v----8h10p8\7v-
G|--------------------14-------14----14-14-----------------------------------------
D|---------------------------------------------------------------------------------
A|---------------------------------------------------------------------------------
E|---------------------------------------------------------------------------------

Stave 5:

E|--------------------------------------------------------------------------|-
B|-7-8---10-8-10-8---8------------------------------------------------------|-
G|-----9-----------7---9-7---7------------------7---7-9-7----9/11-9-7-9/11v-|-
D|-------------------------9---8-9-8-7-5----7/9---9-------------------------|-
A|--------------------------------------------------------------------------|-
E|--------------------------------------------------------------------------|-

Stave 6:

E|-------------------------------------------------------------
B|---------9-8-7---7-------9-----8----8-8-8----------8---7---7-
G|---------------9---9-7-9---7--------7--------8/9-7---7---9-7-
D|-----7-9---------------------9------9------------------------
A|-7-9---------------------------------------------------------
E|-------------------------------------------------------------

Stave 7:

E|---------------------------------------------------------------------2-|-
B|---------------------------------------------------------------------3-|-
G|---------------------------4----4---4----------------------2p1p0-----2-|-
D|-----------------5v----4-5--------5---5/7v----5p4\2-2p0----------2/4-0-|-
A|-0-5-0-5-5/6-6/7-------------------------------------------------------|-
E|-----------------------------------------------------------------------|-

Stave 8:

E|---------7--------------------------------------------------------------------2----
B|-------9---9---9-7h8----8-------8-7-8/10-7----------------------------------3---3v-
G|-7-9h9-------9------------7-----7----------7------------------------------2--------
D|----------------------------9-7-9---------------7-9----5-7----2-4-------0----------
A|------------------------------------------------------------------0-2-0------------
E|-----------------------------------------------------------------------------------

http://www.guitartabcreator.com
Guitar Tab Creator is intended to store guitar tab created through the tool. It currently does not support in-line text editing. Any text you place in here will be lost. If you need to comment on your tab, please use the "Tab Notes" section located below.