Sound will begin in 5 seconds

Row Jimmy 1991

01234567891011121314151617181920212223
E
B
G
D
A
E
B
0 1 2 3 4 5 6 7 8 9 10 11 12 13 14 15 16 17 18 19 20 21 22 23
Top Courses in Music 160x600
(/) Slide Up  (\) Slide Down  (h) Hammer On  (p) Pull Off  (b) Bend (r) Release (v) Vibrato

Stave 1:

E|-----------------------------------------------------------------------------------------------------------|--
B|-----------------14--14---------14--17---------14--15-----15--14-----------------------------------14------|--
G|-------------14-------------14-------------14---------------------16--14h16p14-----------------14----------|--
D|---------14---------------------------------------------------------------------17--16-----14----------14--|--
A|--12/16----------------------------------------------------------------------------------------------------|--
E|-----------------------------------------------------------------------------------------------------------|--

Stave 2:

E|--------------------------------------------------------------------------------------------|--
B|--------------15v-----14h15p14----------14-------------12------------10--12b14--14r12--10v--|--
G|--14--15--16--------------------16--14---------14--12------11h12p11-------------------------|--
D|--------------------------------------------------------------------------------------------|--
A|--------------------------------------------------------------------------------------------|--
E|--------------------------------------------------------------------------------------------|--

Stave 3:

E|-------------------------------------------------------------------------------------15v--
B|-------------14-------------17v-----14--15--17--15--14-----15--14-------------------------
G|---------14------14--16/18-----------------------------------------16-----14--15/16-------
D|--12/14-----------------------------------------------------------------------------------
A|------------------------------------------------------------------------------------------
E|------------------------------------------------------------------------------------------

Stave 4:

E|--17--15--14---------------------------------|--
B|--------------17--15v-----17p15p14-----------|--
G|------------------------------------16--14v--|--
D|---------------------------------------------|--
A|---------------------------------------------|--
E|---------------------------------------------|--

Stave 5:

E|----------------------------------------------------------------------------------------------------------------------------------------------------------|--
B|---------15-----------------14-------------------------12-------------------------------------------------------------------------------------------------|--
G|-------------16--14-----14------16--14-------------12------14-----11--12--11-------------11--12--11--------------11--12--14--12--11--------------12--11v--|--
D|--15h16---------------------------------16-----14-----------------------------12--14-----------------14--12--14----------------------14--12--14-----------|--
A|----------------------------------------------------------------------------------------------------------------------------------------------------------|--
E|----------------------------------------------------------------------------------------------------------------------------------------------------------|--

Stave 6:

E|------------------------------------------------------------------------------------------------------------------
B|--17--15--14---------15--14-------------14-----------------------------------------14--15--14---------------------
G|--------------16-------------16--14---------16--14---------------------14--15--16--------------16p15p14------14v--
D|----------------------------------------------------17-----14--16--17------------------------------------16-------
A|------------------------------------------------------------------------------------------------------------------
E|------------------------------------------------------------------------------------------------------------------

Stave 7:

E|------------------------------------------------------------------------------------------------------------------------------------|--
B|--17--15--14---------15--14-------------14------------------------------------------------------------------------------------------|--
G|--------------16-------------16--14---------16--14---------16--14-------------14----------------------------------------------------|--
D|----------------------------------------------------17-------------17--16---------17--16--14-----17--16--14---------16--14----------|--
A|-------------------------------------------------------------------------------------------------------------17-------------17--16--|--
E|------------------------------------------------------------------------------------------------------------------------------------|--

Stave 8:

E|--------------------------------------------------------------------------------|--
B|--------------------------------------14----------------------------------------|--
G|--------------------------14--15--16------14h15h16--16p15p14--16p15p14\11-------|--
D|--------------14--15--16---------------------------------------------------12v--|--
A|--14--16--17--------------------------------------------------------------------|--
E|--------------------------------------------------------------------------------|--

Stave 9:

E|--17/19--17v--|--19b21--21--21p20p19--16--17--19--19--17--16--17v--19p17p16\14--15v--
B|--------------|----------------------------------------------------------------------
G|--------------|----------------------------------------------------------------------
D|--------------|----------------------------------------------------------------------
A|--------------|----------------------------------------------------------------------
E|--------------|----------------------------------------------------------------------

Stave 10:

E|--17--15--14---------15--14-------------14-------------------------------------------------------------------------------------------------------|--
B|--------------17-------------17--15---------17--15--14-----17--15--14---------15--14------15--14-------------------------------------------------|--
G|-----------------------------------------------------------------------16-------------16----------16--14------14h16p14--------------14-----------|--
D|----------------------------------------------------------------------------------------------------------16------------16--14--16------16--14v--|--
A|-------------------------------------------------------------------------------------------------------------------------------------------------|--
E|-------------------------------------------------------------------------------------------------------------------------------------------------|--

http://www.guitartabcreator.com
Guitar Tab Creator is intended to store guitar tab created through the tool. It currently does not support in-line text editing. Any text you place in here will be lost. If you need to comment on your tab, please use the "Tab Notes" section located below.