Sound will begin in 5 seconds

Positively 4th St.

Chords
01234567891011121314151617181920212223
E
B
G
D
A
E
B
0 1 2 3 4 5 6 7 8 9 10 11 12 13 14 15 16 17 18 19 20 21 22 23
Song Science #1: How Pros Use 6 Chords to Write Hit Songs
(/) Slide Up  (\) Slide Down  (h) Hammer On  (p) Pull Off  (b) Bend (r) Release (v) Vibrato

Stave 1:

E|----------------------------------------------------------|-----------------------------------------|-
B|-13b15-12v-13-12------------------------------------------|-12----12-15v----15b17----12-15b17-15v-v-|-
G|-----------------14b16-12-14v-12p11h12/14-12b14r12-9v-----|----14-----------------12----------------|-
D|------------------------------------------------------12v-|-----------------------------------------|-
A|----------------------------------------------------------|-----------------------------------------|-
E|----------------------------------------------------------|-----------------------------------------|-

Stave 2:

E|-15-14----15-14-12----15-14-12----------------------|-
B|-------------------------------15----13-12----------|-
G|-------------------------------------------14-12v-v-|-
D|----------------------------------------------------|-
A|----------------------------------------------------|-
E|----------------------------------------------------|-

Stave 3:

E|----------------------------------------------------------------------------|-
B|-13b15--------------------------12b13---------------------------------------|-
G|-------16r14-14v----12-14----12-------12-12-14-12-14v-17r16-16-14----14-12v-|-
D|----------------------------------------------------------------------------|-
A|----------------------------------------------------------------------------|-
E|----------------------------------------------------------------------------|-

Stave 4:

E|----------------------------14-------------------------------------------|-
B|-12----12h13p12/15----15b17----17r15----12-13-12-------------------------|-
G|----14-------------------------------------------14b16-16-12-11----------|-
D|----------------------------------------------------------------14-12v-v-|-
A|-------------------------------------------------------------------------|-
E|-------------------------------------------------------------------------|-

Stave 5:

E|-------------------------------------------------12-15b17----15-12-----|-------------------|-
B|-------15-15b17-15----12b13-12-------12-13----15-------------------15v-|-15-13-------------|-
G|-------------------------------14--------------------------------------|-------16b18-14-12-|-
D|-10/12-----------------------------------------------------------------|-------------------|-
A|-----------------------------------------------------------------------|-------------------|-
E|-----------------------------------------------------------------------|-------------------|-

Stave 6:

E|--------------------------------------------------|-----------------------|-
B|--------------------------------------------------|-15-13----12-12--------|-
G|-12p11h12/14-14b16r14----12-------------11--------|----------------14-12v-|-
D|----------------------------14----14-12----14-12v-|-----------------------|-
A|--------------------------------------------------|-----------------------|-
E|--------------------------------------------------|-----------------------|-

Stave 7:

E|-------12-15-------------------------------------------------------------12----------------|-
B|-13b15----------13-12----------------------------12b13-12b13-15b17----------15-12-13b15v-v-|-
G|----------------------14b16-14-14b16r14-12-14-12-------------------------------------------|-
D|-------------------------------------------------------------------------------------------|-
A|-------------------------------------------------------------------------------------------|-
E|-------------------------------------------------------------------------------------------|-

Stave 8:

E|-------------14----------------------------------|-
B|-15b17-15b17-------13-12-------------------------|-
G|-------------------------14\12----------------11-|-
D|----------------------------------14-14----14-12-|-
A|----------------------------------14-14----14-12-|-
E|-------------------------------------------------|-

http://www.guitartabcreator.com
Guitar Tab Creator is intended to store guitar tab created through the tool. It currently does not support in-line text editing. Any text you place in here will be lost. If you need to comment on your tab, please use the "Tab Notes" section located below.